Misc Your Songs - Shithead And Assface Chords & Tabs

 

Shithead And Assface Chords & Tabs

Misc Your Songs Chords & Tabs

Version: 1 Type: Tab 0 ratings
1 star 2 stars 3 stars 4 stars 5 stars
comments

Shithead And Assface Tab

 This is another song from the Merk Keller archive

  1----------------------------------------------------------
  2----------------------------------------------------------
  3----------------------------------------------------------
  4--6--6--6--6--6--7-7-7-7-7--7--6-6-6-6-6-7-7-7-7-7-7-7-7--
  5--7--7--7--7--7--7-7-7-7-7--7--7-7-7-7-7-7-7-7-7-7-7-7-7--
  6--0--0--0--0--5--5-5-5-5-5--4--4-4-4-4-4-5-5-5-5-5-5-5-5--
[ Tab from: http://www.guitartabs.cc/tabs/m/misc_your_songs/shithead_and_assface_tab.html ]
  1-------------------------------------------------------------
  2-------------------------------------------------------------
  3-------------------------------------------------------------
  4--6--6--6--6--8--9-9-9-9-9-9-9--8-8-8-8-8-8-8-9-9-9-9-9-9-9--
  5--7--7--7--7--9--9-9-9-9-9-9-9--9-9-9-9-9-9-9-9-9-9-9-9-9-9--
  6--9--9--9--9--7--7-7-7-7-7-7-6--6-6-6-6-6-6-7-7-7-7-7-7-7-7--

  1-------------------------------------------------------------------
  2-------------------------------------------------------------------
  3-------------------------------------------------------------------
  4-------------------------------------------------------------------
  5-------------------------------------------------------------------
  6---0--0-0-0-0-0-5-5-5-5-4-4-4-5-5-9-9-9-9-9-7-7-7-7-6-6-6-6-7-7-7--

  That's all
  be sure to tune in next week for more adventures 
  of Shithead and Assface......
Comments