Misc Your Songs - Shawn Paliew - To Your Grave Chords & Tabs

 

Shawn Paliew - To Your Grave Chords & Tabs

Misc Your Songs Chords & Tabs

Version: 1 Type: Tab 0 ratings
1 star 2 stars 3 stars 4 stars 5 stars
comments

Shawn Paliew - To Your Grave Tab

Title: To Your Grave 
Author: Shawn Paliew
Tabbed by: Shawn Paliew

Intro 
E|---------------------------------------------|
A|---------------------------------------------| 
D|---------------------------------------------| 
G|---------------------------------------------|
B|11-13-11-14-11-12-22-20-22-------5-3-6-4-7-5-| X 3
E|---------------------------8-6-7-------------|

Chorus 1
E|0h7-0h7--0h7-7-7-8-9----------------12-----12----11-|
A|-------------0-6-7-9-5-7-6-5s17---11-----11----10---|
D|-------------7-7-8-9-7-9--------13-----13----12-----|  
G|----------------------------------------------------|
B|----------------------------------------------------|  X 4
E|----------------------------------------------------|
[ Tab from: http://www.guitartabs.cc/tabs/m/misc_your_songs/shawn_paliew_to_your_grave_tab.html ]
Verse
E|0---0---0-----12--12--12--------------------------------|
A|-2---2---2------14--14--14---14---12----14--------------|
D|-------------------------------12---10----12------------|  
G|--4---4---4---------------------------------------------|
B|------------------------------------------------4b5b3b4-|X 2
E|---------------------------------------------5-3--------|

Bridge
E|-----------------------------------0--------------|X 4
A|-----------------------------------3--7-9-10-7-8-9|
D|-----------------------------------2--------------| 
G|7---6-7---6-7--10-8-9--------------3--------------|
B|-6-7---6-7------------10-12h14b15--1--------------|
E|-----------------------------------0--------------|

Chorus 2
E|1s2h3-0-0-0-0-0-0-0-0-0-0-3-4-5---------------------------|X 6
A|------2-2-2-2-2-2-2-2-2-2---------------------------------|
D|-------------------------------15-15-15-15-16-------------|
G|----------------------------------------------12-14-15-13-|
B|----------------------------------------------------------|
E|----------------------------------------------------------|

Ending
E|5-----------------------------------|
A|-0----------------------------------|X 3
D|--8------3-3-3-3--4-4-4-4--5-5-5-5--|
G|-----8----4-5-3-2--5-6-4-3--6-7-5-4-|
B|------0-----------------------------|
E|-------5----------------------------|

Order
Intro
Chorus 1
Verse 
Intro
Bridge
Chorus 2
Verse
Bridge
Ending
Comments