Misc Your Songs - Sea Of Dreams Chords & Tabs

 

Sea Of Dreams Chords & Tabs

Misc Your Songs Chords & Tabs

Version: 1 Type: Tab 0 ratings
1 star 2 stars 3 stars 4 stars 5 stars
comments

Sea Of Dreams Tab

   
Transcribed: Matt Hritz

This is just something I threw together today when I was bored. It's nothing real special. I didn't have any effects or anything just straight clean tone. Standard tuning. 
(E A D G B E)

But for later use or reference this song is copyrighted to Matt Hritz 2002.

|-------------------------------------3------3-------------|
|-------7-------------7---------------3------3-------------|
|-----7---7---------7---7-----------5-------------5-----5--|
|---5-------5-----5-------5-------5-------5-----5---5------|
|-7-----------7-7-----------7-0-3-------3-----3-------3---0|
|----------------------------------------------------------|

|----------------------------------------------------------|
|----------------------------------------------------------|
|-------7-----7----7----------------2-----2-----2----------|
|-------0-----0----0--------------0-0-----0-----0-----5----|
|---8-8-----8----8-----8-8------3-------3-----3-----5---0--|
|-6------6-----6-----6-----6--1-------1-----1-----3--------|

I guess you would say this (below) is the chorus riff of the song. Up top is the intro/verse. Before entering the chorus the last riff |--------|
                     |--------|
                     |-----2--|
                     |-----0--|
                     |---3----|
                     |-1------|

is just repeated instead of moving on to the "3 5" picking.

|----------------------------------------------------------|
|----------------------------------------------------------|
|--------------7-7-7-7-7-7---------------7-7-7-7-7-7-------|
|-5-5-5-5-5-5--7-7-7-7-7-7--4-4-4-4-4-4--7-7-7-7-7-7-------|
|-5-5-5-5-5-5--5-5-5-5-5-5--2-2-2-2-2-2--5-5-5-5-5-5-------|
|-3-3-3-3-3-3--5-5-5-5-5-5--0-0-0-0-0-0--5-5-5-5-5-5-------|
[ Tab from: http://www.guitartabs.cc/tabs/m/misc_your_songs/sea_of_dreams_tab.html ]
|----------------------------------------------------------|
|---------------------------------0------------------------|
|--------------7-7-7-7-7-7------0---4-5-4-0----------------|
|-5-5-5-5-5-5--7-7-7-7-7-7----5-------------3-3-3-3-3-3----|
|-5-5-5-5-5-5--5-5-5-5-5-5--3---------------3-3-3-3-3-3----|
|-3-3-3-3-3-3--5-5-5-5-5-5------------------1-1-1-1-1-1----|



For the bridge:
 [13x]  [13x] [13x]  [13x]
|-0------0-----0-------------------------------------------|
|-0------3-----0------3------------------------------------|
|-0------0-----0------4------------------------------------|
|-2------2-----4------4------------------------------------|
|-3------3-----5------2------------------------------------|
|----------------------------------------------------------|

That's the bridge in a nutshell. It would take a long time to tab out every little thing I hit so to make it easier on you beginners I did that. If you really want to see the real thing then here it is:

|-0-0-0-0-0-0-0-0-0-0-0-0-0--0-0-0-0---0---0-0-0-0-0-3-----|
|-0-0-0---0---0-0---0---0-0--3---3-3---3-3-3---3-3-3-3-----|
|-0-0---------0-----0-----0--0-----0-0-0-0-0---0-0-0-0-----|
|-2-----------2-----2-----2--2-------2-2-2-2-----2-2-------|
|-3-----------3-----------3--3-------3-3-3-3-------3-------|
|----------------------------------------------------------|

|-0-0-0-0-0-0-0-0-0-0-0-0-0--------------------------------|
|-0-0-0---0---0-0---0---0-0--3-------3-3-3-3-3-------3-----|
|-0-0---------0-----0-----0--4---4---4-4-4-4-4-4-4-4-4-----|
|-4-----------4-----4-----4--4-4-4-4-4-4-4-4-4-4-4-4-4-----|
|-5-----------5-----------5--2-2-2-2-2-2-2-2-2-2-2-2-2-----|
|----------------------------------------------------------|

After repeating that 4x return back to the chorus and then the outro is the same as the intro. 

Song Order:
Intro [2x]
Verse [3x]
Chorus[2x]
Verse [3x]
Chorus[2x]
Bridge[4x]
Chorus[2x]
Outro [2x]

Any questions or comments email me at Abyss1212@hotmail.com!
Cheers!
Comments