Misc Your Songs - Sad Poo Chords & Tabs

 

Sad Poo Chords & Tabs

Misc Your Songs Chords & Tabs

Version: 1 Type: Tab 0 ratings
1 star 2 stars 3 stars 4 stars 5 stars
comments

Sad Poo Tab

written by jon and mike
well here a little thing we came  up with not much but its something/ it sounds 
cool when played fast


e---7--------8-----8-----5-------7-----7-----3----5-----3---
b------0-------0------0-----0------0-----0-----0----0-----0-
d---------0------0-------------0-----0-----------0----0-----
g-----------------------------------------------------------
a---7--------------------5-------------------3--------------
e-----------------------------------------------------------

e--2------3--2-------
b----0----------3---0
g------0-------------
a--2-----------------
e--------------------

verse:
[ Tab from: http://www.guitartabs.cc/tabs/m/misc_your_songs/sad_poo_tab.html ]
e--7----8-----10-----8----7----5-----7----8-----7----5------
b----0----0------0-----0----0----0-----0----0-----0----0----
g------0----0------0-----0---------0-----0----0-----0-------
d-----------------------------------------------------------
a--7---------------------------5----------------------------
e-----------------------------------------------------------

e--3-----5-----7-----5----3-----2-------3--2----------------
b----0-----0-----0-----0----0------0----------3---0---3/5---
g------0-----0-----0-----0-----------0----------------------
d-----------------------------------------------------------
a--3----------------------------2---------------------------
e-----------------------------------------------------------
Comments