Misc Your Songs - Out With Anarchy Chords & Tabs

 

Out With Anarchy Chords & Tabs

Misc Your Songs Chords & Tabs

Version: 1 Type: Tab 0 ratings
1 star 2 stars 3 stars 4 stars 5 stars
comments

Out With Anarchy Tab

   
The solo is electric(clean)the rest is acoustic.


e|------------------------------------------------------------|
B|------------------------------------------------------------|
G|-5-555555-5-555555--2-222222--------------------------------|
D|-5-555555-5-555555--2-222222--3-333333----------------------|
A|-3-333333-3-333333--0-000000--3-333333----------------------|
E|------------------------------1-111111----------------------|4x(intro)

e|------------------------------------------------------------|
B|------------------------------------------------------------|
G|-2-222222---------------------------------------------------|
D|-2-222222-3-333333-5-555555-3-333333------------------------|
A|-0-000000-3-333333-5-555555-3-333333------------------------|
E|----------1-111111-3-333333-1-111111------------------------|4x(verse)
[ Tab from: http://www.guitartabs.cc/tabs/m/misc_your_songs/out_with_anarchy_tab.html ]
e|------------------------------------------------------------|
B|------------------------------------------------------------|
G|------------------------------------------------------------|
D|--5555-2222-----------5555-7777-----------------------------|
A|--3333-0000-2222-5555-3333-5555-7777-5555-------------------|
E|------------0000-3333-----------5555-3333-------------------|3x(chorus)

(repeat verse)

(repeat chorus)

e|----------------------------------------------|--------------|
B|----------------------------------------------|--------------|
G|-----7b-5-5----5---7-9-10-12------------------|--------------|
D|--7b ----5-3-3---7b----------10-12------------|--------------|
A|----------------------------------10-12--5-7b-|755755755b----|
E|----------------------------------------------|--------------|solo
                                                (       x2     )

(repeat chorus)

b=bend
=============================================================================
Comments