Misc Your Songs - Our Song Chords & Tabs

 

Our Song Chords & Tabs

Misc Your Songs Chords & Tabs

Version: 1 Type: Tab 0 ratings
1 star 2 stars 3 stars 4 stars 5 stars
comments

Our Song Tab

   
This way up' are:
Andy - Vocals
Matt - Guitar
Danny - Guitar
Jason - Bass
Ash - Drums

Rhythm guitar:
(...yes this tab is right because i wrote the song)

Intro/Verse:
E|-0-0--0-0-0--0--0--0-0-0-0-| (x4)
B|-0-0--0-0-0--0--0--0-0-0-0-|
G|-0-0--0-0-0--0--0--0-0-0-0-|
D|-0-0--0-0-0--0--0--0-0-0-0-|
A|-7-7--5-5-5--3--3--3-3-3-3-|
E|-7-7--5-5-5--3--3--3-3-3-3-|

Chorus:
E|-3-(x6) -0-(x6) -3-(x6) -0-(x6)
B|-0-     -0-     -3-     -2-
G|-0-     -0-     -2-     -2-
D|-0-     -2-     -0-     -2-
A|-2-     -2-     -0-     -0-
E|-3-     -0-     ---     ---
[ Tab from: http://www.guitartabs.cc/tabs/m/misc_your_songs/our_song_tab.html ]
Interlude:
E|-0-----0-----0-0-0-|(x4) After interlude...E|-0-0-0-0-|
B|-0-----0-----0-0-0-|                       B|-0-0-0-0-|
G|-0-----0-----0-0-0-|                       G|-0-0-0-0-|
D|-0-----0-----0-0-0-|                       D|-0-0-0-0-|
A|-7-----5-----0-0-0-|                       A|-7-7-7-7-|
E|-7-----5-----3-5-7-|                       E|-7-7-7-7-|

Outro:
E|-0-0--0-0-0--0--0--0-0-0-0-(x2)-------------------|
B|-0-0--0-0-0--0--0--0-0-0-0------------------------|
G|-0-0--0-0-0--0--0--0-0-0-0------------------------|
D|-0-0--0-0-0--0--0--0-0-0-0------------------------|
A|-7-7--5-5-5--3--3--3-3-3-3------------------------|
E|-7-7--5-5-5--3--3--3-3-3-3-------7-7-5-5-5-3-(x4)-|
Comments