Misc Your Songs - Nirvana Style Chords & Tabs

 

Nirvana Style Chords & Tabs

Misc Your Songs Chords & Tabs

Version: 1 Type: Tab 0 ratings
1 star 2 stars 3 stars 4 stars 5 stars
comments

Nirvana Style Tab

tabbed by : Andrew Dunnington
tuning : Regular
timing : 4/4

  intro
e-----------------3-------3--------]
b---------------3-------5----------]
g-----4-------4-------4--------3-3-]
d---4---4-4/5-------2--------------]  Repeat one more time
a-2--------------------------------]
e----------------------------------]

e---------------------0v-----------]
b---------------------0v-----------]
g-4-4-4---------------0vhold---2-3-]
d-4-4-4-----5-5-5-----2vfor----2-3-]  Repeat one more time
a-2-2-2-----5-5-5-----2vthree--0-1-]
e-----------3-3-3-----0vcounts-----]

  verse
e-------------------------------------]
b-------------------------------------]
g-------------------------------------]
d-9-9-9-----9-9-9-----6-6---6-----9-9-]  repeat three times
a----------101010-----7-7h9-7----1010-]
e-7-7-7-----7-7-7----------------1010-]

  chorus
e---------------------0v-----------]
b---------------------0v-----------]
g-4-4-4---------------0vhold---2-3-]
d-4-4-4-----5-5-5-----2vfor----2-3-]  repeat one more time
a-2-2-2-----5-5-5-----2vthree--0-1-]
e-----------3-3-3-----0vcounts-----]
[ Tab from: http://www.guitartabs.cc/tabs/m/misc_your_songs/nirvana_style_tab.html ]
  solo
e-------------------------------------]
b-10b-v-------12-12p10---10h12p10-----]
g------hold------------9----------9---]
d------for----------------------------]
a------three--------------------------]
e------counts-------------------------]

e-----------------------12-----]
b-12b-14b-----14b-12-----------]
g--------------------12--------]
d------------------------------]
a------------------------------]
e------------------------------]

e-10b-----10b-10-7-----]
b----------------------]
g----------------------]
d----------------------]
a----------------------]
e----------------------]

e--------------------------------------------]
b-----10h12p10------12b----------------------]
g--------------9-----------------------------]
d-9-------------------------6-6-6-6------9-9-] repeat this
a----------------10---------7-7h9p7-----1010-] measure one
e---------------------------0-0-0-0-----1010-] more time
  outro
e-----------------3-------3v-]
b---------------3-------5v---]
g-----4-------4-------4v-----]
d---4---4-4/5-------2v-------]
a-2--------------------------]
e----------------------------]

Any question's email

me at fender_bender_rocker@yahoo.com.
Comments