Misc Your Songs - Michael Mccaslin - Going To The Mountains Chords & Tabs

 

Michael Mccaslin - Going To The Mountains Chords & Tabs

Misc Your Songs Chords & Tabs

Version: 1 Type: Tab 0 ratings
1 star 2 stars 3 stars 4 stars 5 stars
comments

Michael Mccaslin - Going To The Mountains Tab

Intro Part 1
-----------------------------------------------------------------------------------------------|
-----------------------------------------------------------------------------------------------|
0-2-4-2-0----------------------------------4--2-0----------------------------------------------|
-------------4-2-0-2-0----------------0-2---------4-2----4-2-0---------------------------------|
0------------------------4-2-0----0-2------------------------------4-0-------------------------|
----------------------------------------------------------------------------4-2-0-----0-0-0-0--|

Intro Part 2
----------------------------------------------------------------------|
----------------------------------------------------------------------|
----------------------------------------------------------------------|
---------0-4----2-0---------------------------------------------------|
-0-2-4--------------4-2-4-2-0--0--------------------------------------|
-----------------------------------4--4-2-0---0-0-0-0-----------------|
[ Tab from: http://www.guitartabs.cc/tabs/m/misc_your_songs/michael_mccaslin_going_to_the_mountains_tab.html ]
Chorus
-0-0-0-0-2-3-3-3-x-3-3-------0-0-0-x-0-0--0-0-0-x-0-0------------|
-3-3-3-3-2-3-3-3-x-3-3-------0-0-0-x-1-1--0-0-0-x-0-0------------|
-2-2-2-2-2-0-0-0-x-0-0-(4x)-2-2-2-x-2-2--0-0-0-x-1-1-------------|
-0-0-0-0-0-0-0-0-x-2-2-------2-2-2-x-2-2--2-2-2-x-2-2------------|
------------------2-2-x-3-3-------0-0-0-x-0-0--2-2-2-x-2-2-------|
------------------3-3-x------------------------------0-0-0-x-0-0-|

Refrain
------------------------------------------------------------------------|
------------------------------------------------------------------------|
------------------------------------------------------------------------|
-7-9-7-------7-5-7-5----------------3-5-3-0-----0-3-5-3-0---------------|
-0-----9-7-9-----------7-5-7-5-3-5----------3-5-------------5-----------|
------------------------------------------------------------------------|

Solo
---------------------------------------|
---------------------------------------|
--------------------------5-7-5-0------|
-5-3-5-3-0--0-3-5-7-----------7-5-3-0--|
--------------5------------------------|
---------------------------------------|(Back To Chorus)

This is mi first tab of mi own song, i hope ya like it!
Comments