Misc Your Songs - Matt Manske - X-76 Chords & Tabs

 

Matt Manske - X-76 Chords & Tabs

Misc Your Songs Chords & Tabs

Version: 1 Type: Tab 0 ratings
1 star 2 stars 3 stars 4 stars 5 stars
comments

Matt Manske - X-76 Tab

-------------------------------------------------------------------------------
			     X-76 - Matt Manske
-------------------------------------------------------------------------------
Tabbed by: Matt Manske
Email: Hyper22@Gmail.com

Tuning: Standard (EADGBe)

Legend:

  x  Palm Mute
  p  Pull Off
  h  Hammer On
  /  Slide Up
  \  Slide Down
 ( ) Soft Note

     LEAD GUITAR                                          
E  :| 2---2---x---2---|3---3---x---3--- 2|2---2---x---2---|
B  :| 3-------x-------|3-------x------- ||3-------x-------|
G  :|*2-------x-------|0-------x-------*||2-------x-------|
D  :|*0-------x-------|0-------x-------*||0-------x-------|
A  :| 0-------x-------|2-------x------- ||0-------x-------|
E  :| --------x-------|3-------x------- ||--------x-------|

                                                                         
E  :3-3-2-3-2-3-2-3-2-3-2-3-|2-----2-h3-p2----------|--3-----2-h3-p2-----|
B  :------------------------|3-x3----------3x3-/5-5-|x-3--3----------3x5-|
G  :------------------------|2--------------------3-|x-0-----------------|
D  :------------------------|0----------------------|--0-----------------|
A  :------------------------|0----------------------|--2-----------------|
E  :------------------------|-----------------------|--3-----------------|

                                                                  
E  :----2-----2-h3-p2----|-------3-----2-h3-p2-|--------2-----2-h3|
B  :----3-x3----------3x3|/5-5-x-3--3----------|3x5-----3-x3------|
G  :----2----------------|---3-x-0-------------|--------2---------|
D  :----0----------------|-------0-------------|--------0---------|
A  :----0----------------|-------2-------------|--------0---------|
E  :---------------------|-------3-------------|------------------|

                                                                     
E  :p2------------3-----|2-h3-p2-------------|2-----2-h3-p2----------|
B  :---3x3-/5-5-x-3--3--|--------3x5----3----|3-x3----------3x3-/5-5-|
G  :----------3-x-0-----|--------------------|2--------------------3-|
D  :--------------0-----|--------------------|0----------------------|
A  :--------------2-----|--------------------|0----------------------|
E  :--------------3-----|--------------------|-----------------------|

                                                                           
E  :--3-----2-h3-p2-----|------2----3-2--|------2----3-2--|------2----3-2--|
B  :x-3--3----------3x5-|----3---3-------|----3---3-------|----3---3-------|
G  :x-0-----------------|----------------|----------------|----------------|
D  :--0-----------------|----------------|----------------|----------------|
A  :--2-----------------|----------------|----------------|----------------|
E  :--3-----------------|0-----0---------|0-----0---------|0-----0---------|

                                                              
E  :------2----3-2--|--------------2-|3-----2-----3-----0-----|
B  :----3---3-------|------xx-x-3----|------------------------|
G  :----------------|------xx-x------|--0-----0-----0-----0---|
D  :----------------|------xx-x------|--0-----0-----0-----0---|
A  :----------------|------xx-x------|------------------------|
E  :0-----0---------|0---------------|----0-----0-----0-----0-|

                                                     
E  :3-----2-----3-----5-----|3-----2-----3-----0-----|
B  :------------------------|------------------------|
G  :--0-----0-----0-----0---|--0-----0-----0-----0---|
D  :--0-----0-----0-----0---|--0-----0-----0-----0---|
A  :------------------------|------------------------|
E  :----0-----0-----0-----0-|----0-----0-----0-----0-|

                                                     
E  :3-----3-----5-----7-----|3-----2-----3-----0-----|
B  :----------------------0-|------------------------|
G  :--0-----0-----0-----0---|--0-----0-----0-----0---|
D  :--0-----0-----0-----0---|--0-----0-----0-----0---|
A  :------------------------|------------------------|
E  :----0-----0-----0-----0-|----0-----0-----0-----0-|

                                                     
E  :3-----2-----3-----5-----|3-----2-----3-----0-----|
B  :------------------------|------------------------|
G  :--0-----0-----0-----0---|--0-----0-----0-----0---|
D  :--0-----0-----0-----0---|--0-----0-----0-----0---|
A  :------------------------|------------------------|
E  :----0-----0-----0-----0-|----0-----0-----0-----0-|

                                                              
E  :3-----3-----5-----7-----|------------3---|2-3-5---3-------|
B  :----------------------0-|--------5-------|------------5---|
G  :--0-----0-----0-----0---|0-0-2-0---0---0-|------0---0---0-|
D  :--0-----0-----0-----0---|----------------|----------------|
A  :------------------------|----------------|----------------|
E  :----0-----0-----0-----0-|0-----0---0---0-|------0---0---0-|

                                                           
E  :----------------|--3-2-3-5-7-5-3--3-2|-xx3-xx5-xx7-7-7-|
B  :5-8-5---------5-|8-------------------|-----------------|
G  :------3-0-2-0---|--------------------|-----------------|
D  :----------------|--------------------|-----------------|
A  :----------------|--------------------|-----------------|
E  :------0---------|----0-------0-0--0-0|---0---0---0-0-0-|
[ Tab from: http://www.guitartabs.cc/tabs/m/misc_your_songs/matt_manske_x_76_tab.html ]
                                                         
E  :xx7-xx5-xx3-2-3--|-xx3-xx5-xx7-7-7-|xx7-xx5-xx3-2-3-3|
B  :-----------------|-----------------|-----------------|
G  :-----------------|-----------------|-----------------|
D  :-----------------|-----------------|-----------------|
A  :-----------------|-----------------|-----------------|
E  :--0---0---0-0-0-0|---0---0---0-0-0-|--0---0---0-0-0-0|

                                                                         
E  :3-3-3-3-3-3-3-2---|3-----2-3-2---3-|----2-3-2---3---|--2-3-2---3-----|
B  :----------------0-|--0-3-------0---|0-3-------0---0-|3-------0---0-3-|
G  :------------------|----------------|----------------|----------------|
D  :------------------|----------------|----------------|----------------|
A  :------------------|----------------|----------------|----------------|
E  :------------------|----------------|----------------|----------------|

                                                          
E  :2-3-2---3-----2-|3-2---3-----2-3-|5---(5)---7---(7)---|
B  :------0---0-3---|----0---0-3-----|--------------------|
G  :----------------|----------------|--------------------|
D  :----------------|----------------|--------------------|
A  :----------------|----------------|--------------------|
E  :----------------|----------------|--------------------|

                       
E  :8---(8)-5------xxx-|
B  :---------------xxx-|
G  :---------------xxx-|
D  :------------19-----|
A  :------------17-----|
E  :-------------------|

                                                         
E  :-----------------------------------------------------|
B  :-----------------------------------------------------|
G  :-----------------------------------------------------|
D  :---17-p16----19-p17----21-p19-p17----19-p17----17-p16|
A  :17--------17--------17------------17--------17-------|
E  :-----------------------------------------------------|

                                                         
E  :-----------------------------------------------------|
B  :-----------------------------------------------------|
G  :-----------------------------------------------------|
D  :---17-p16----19-p17----21-p19-p17----19-p17----17-p16|
A  :17--------17--------17------------17--------17-------|
E  :-----------------------------------------------------|

                                                         
E  :-----------------------------------------------------|
B  :-----------------------------------------------------|
G  :-----------------------------------------------------|
D  :---17-p16----19-p17----21-p19-p17----19-p17----17-p16|
A  :19--------19--------19------------19--------19-------|
E  :-----------------------------------------------------|

                                                         
E  :-----------------------------------------------------|
B  :-----------------------------------------------------|
G  :-----------------------------------------------------|
D  :---17-p16----19-p17----21-p19-p17----19-p17----17-p16|
A  :21--------21--------21------------21--------21-------|
E  :-----------------------------------------------------|

                                                         
E  :-----------------------------------------------------|
B  :-----------------------------------------------------|
G  :-----------------------------------------------------|
D  :---17-p16----19-p17----21-p19-p17----19-p17----17-p16|
A  :21--------21--------21------------21--------21-------|
E  :-----------------------------------------------------|

                                                         
E  :-----------------------------------------------------|
B  :-----------------------------------------------------|
G  :-----------------------------------------------------|
D  :---17-p16----19-p17----21-p19-p17----19-p17----17-p16|
A  :17--------17--------17------------17--------17-------|
E  :-----------------------------------------------------|

                                                         
E  :-----------------------------------------------------|
B  :-----------------------------------------------------|
G  :-----------------------------------------------------|
D  :---17-p16----19-p17----21-p19-p17----19-p17----17-p16|
A  :17--------17--------17------------17--------17-------|
E  :-----------------------------------------------------|

                                                         
E  :-----------------------------------------------------|
B  :-----------------------------------------------------|
G  :-----------------------------------------------------|
D  :---17-p16----19-p17----21-p19-p17----19-p17----17-p16|
A  :19--------19--------19------------19--------19-------|
E  :-----------------------------------------------------|

                                                         
E  :-----------------------------------------------------|
B  :-----------------------------------------------------|
G  :-----------------------------------------------------|
D  :---17-p16----19-p17----21-p19-p17----19-p17----17-p16|
A  :21--------21--------21------------21--------21-------|
E  :-----------------------------------------------------|

                                                         
E  :-----------------------------------------------------|
B  :-----------------------------------------------------|
G  :-----------------------------------------------------|
D  :---17-p16----19-p17----21-p19-p17----19-p17----17-p16|
A  :21--------21--------21------------21--------21-------|
E  :-----------------------------------------------------|

                                   
E  :-------------------------------|
B  :-------------------------------|
G  :-------------------------------|
D  :16-17-19-21-19-17-17-17-17-----|
A  :-------------------------------|
E  :-------------------------------|
Comments