Misc Your Songs - Kaity - Silent Night Chords & Tabs

 

Kaity - Silent Night Chords & Tabs

Misc Your Songs Chords & Tabs

Version: 1 Type: Tab 0 ratings
1 star 2 stars 3 stars 4 stars 5 stars
comments

Kaity - Silent Night Tab

Hey... this is my first tab i have figured out on my own. but its right, be
sure of its just a little song to play around with, Ive been trying to find
a cooler way to play it i can play it at this open stage thing as a joke but
ive had no luck so far.. so if you have found a cool way to play it then please
feel free to email me please! at i_am_kaity@hotmail.com

[ Tab from: http://www.guitartabs.cc/tabs/m/misc_your_songs/kaity_silent_night_tab.html ]
e------------------------------------------------------------------------|
B------------------------------------------------------------------------|
G--------------------7-7-4--5-5-0----------------------------------------|
D--5-7-5-2--5-7-5-2----------------7-7-10-9-7---5-7-5-2------------------|
A------------------------------------------------------------------------|
E------------------------------------------------------------------------|

e------------------------------------------------------------------------|
B------------------------------------------------------------------------|
G------------------------7-7-10-9-7--5-9---5-0---------------------------|
D--7-7-10-9-7---5-7-5-2-------------------------2-5-3-0------------------|
A--------------------------------------------------------3---------------|
E------------------------------------------------------------------------|
Comments