Misc Your Songs - Justin Sherman - My Song Chords & Tabs

 

Justin Sherman - My Song Chords & Tabs

Misc Your Songs Chords & Tabs

Version: 1 Type: Tab 0 ratings
1 star 2 stars 3 stars 4 stars 5 stars
comments

Justin Sherman - My Song Tab

Song: My Song
Artist: Justin Sherman
Tabbed By: Justin Sherman
Notes: This is a new artist from Mr. Honeycutt's Guitar class.

intro 2x
D-----2-----0h2p0-----0--4/5--------------------------|
B-----1------------1----------------------------------|
G-----2-----------------------------------------------|
D--------0---------------0----------------------------|
G-----------------------------------------------------|
D--0---------------0----------------------------------|

4x
D-----------------------------------------------------|
B--7-7-7-5-5-5-7-7-7-5-5-5-2-2-2-3-3-3-2-2-2-3-3-3----|
G-----------------------------------------------------|
D-----------------------------------------------------|
G--7-7-7-7-7-7-7-7-7-7-7-7-4-4-4-4-4-4-4-4-4-4-4-4----|
D-----------------------------------------------------|
[ Tab from: http://www.guitartabs.cc/tabs/m/misc_your_songs/justin_sherman_my_song_tab.html ]
2x
D--------------2-2-2-4-4-4-------------------------------------2-2-2-4-4-4--|
B--2-2-2-3-3-3-------------2-2-2-3-3-3-2-2-2-3-3-3-2-2-2-3-3-3--------------|
G---------------------------------------------------------------------------|
D--0-0-0-0-0-0-0-0-0-0-0-0-0-0-0-0-0-0-0-0-0-0-0-0-0-0-0-0-0-0-0-0-0-0-0-0--|
G---------------------------------------------------------------------------|
D---------------------------------------------------------------------------|

4x
D---------------------------------------------------------------------------|
B---------------------------------------------------------------------------|
G--7-7-7-7-7-7-9-9-9-9-9-9-11-11-11-11-11-11-12-12-12-12-12-12-7-7-7-7-7-7--|
D---------------------------------------------------------------------------|
G--7-7-7-7-7-7-9-9-9-9-9-9-11-11-11-11-11-11-12-12-12-12-12-12-7-7-7-7-7-7--|
D---------------------------------------------------------------------------|

D------------------------------------------|
B------------------------------------------|
G--9-9-9-9-9-9-11-11-11-11-----------------|
D--------------------------2-2-2-----------|
G--9-9-9-9-9-9-11-11-11-11-2-2-2-----------|
D--------------------------2-2-2-----------|

2x
D------------0-4/5------------|
B--------0h1------------------|
G----2------------------------|
D------0-------------0---0----|
G------------------0---0------|
D--0--------------------------|


/ = slide
Comments