Misc Your Songs - Jitz - Edna Chords & Tabs

 

Jitz - Edna Chords & Tabs

Misc Your Songs Chords & Tabs

Version: 1 Type: Tab 0 ratings
1 star 2 stars 3 stars 4 stars 5 stars
comments

Jitz - Edna Tab

   
If you have never heard of this artist don't panic because i just made this tab
myself. This song is based on a beauty of a lady i met but never got the chance
to speak to. I met her in a camp but she was in another group. This song just
bloomed out of me as i though of her. Enjoy.

[ Tab from: http://www.guitartabs.cc/tabs/m/misc_your_songs/jitz_edna_tab.html ]
    D                    A
                             
E---------2h3p2--------------------------------------------------
B----------------2-----------2h3p2-------------------------------
G-----2------------0---------------2-----------------------------
D---0---------------------2----------0-------0-2-----------------
A-3---------------------0----------------2-0---------------------
E----------------------------------------------------------------

    F(bar)        G(bar)
E----------------------------------------------------------------
B----------------------------------------------------------------
G----------------------------------------------------------------
D-----3-2-3-----------5-4-5--------------------------------------
A---3-------3-------5-------3*------------(just keep on repeating)
E-1---------------3----------------------------------------------


*NOTE = This three is fused with the three from the start so don't 
        repeat the first three after the first time you play

Thats about it if you have comments or critisism they are warmly welcome at
sng_jit@hotmail.com
Comments