Misc Your Songs - Jason - I Hate You Chords & Tabs

 

Jason - I Hate You Chords & Tabs

Misc Your Songs Chords & Tabs

Version: 1 Type: Bass Tab 0 ratings
1 star 2 stars 3 stars 4 stars 5 stars
comments

Jason - I Hate You Bass Tab

-------------------------------------------------------------------------------
			     SONG NAME - Band Name
-------------------------------------------------------------------------------

Tabbed By : Jason
e-mail: crazyman27@hotmail.com

This is a little tab I have written. If you can help me add some more, just send me an
email. Lyrics are included. Comments welcome.

Tuning:Standard
        VERSE:
G|---------------------------------------------------------------------------|
D|-------0-2-3--------0-2-3--------------------------------------------------|
A|333333-------333333--------------------------------------------------------|
E|---------------------------------------------------------------------------|

When you came knocking at my door, I said "there's no room for the poor."
      CHORUS:
G|---------------------------------------------------------------------------|
D|--0-2334-55323-------------------------------------------------------------|
A|33------------3------------------------------------------------------------|
E|---------------------------------------------------------------------------|

I'm to kind, to pay you out. Even though I hate you!
[ Tab from: http://www.guitartabs.cc/tabs/m/misc_your_songs/jason_i_hate_you_btab.html ]
G|---------------------------------------------------------------------------|
D|555-333-----555-333--------------------------------------------------------|
A|--------333---------333----------------------------------------------------|
E|---------------------------------------------------------------------------|

I hate you, I hate you, I hate you! I hate you, I hate you, I hate you!

G|----345-----345------------------------------------------------------------|
D|---------------------------------------------------------------------------|
A|123-----123----------------------------------------------------------------|
E|---------------------------------------------------------------------------|

I just plain, hate your guts, all your friends, they are sluts.
VERSE(with these lyrics):

When you called me up late last night

I said I've been watching the fight

CHORUS(with these lyrics):

So can you stop bugging me, so I can live my life.

THEN:

G|---------------------------------------------------------------------------|
D|555-33---55---555-33---55--------------------------------------------------|
A|-------3----3--------3----3------------------------------------------------|
E|---------------------------------------------------------------------------|

So I can live my life(live my life), so I can live my life(live my life)

===============================================================================
Comments