Misc Your Songs - Good Song Chords & Tabs

 

Good Song Chords & Tabs

Misc Your Songs Chords & Tabs

Version: 2 Type: Tab 0 ratings
1 star 2 stars 3 stars 4 stars 5 stars
comments

Good Song Tab

   
e--------------------------------------
b--------------------------------------
g2-2-2-2h3p2--2-2-2-2h3p2- 3-2-0-------     repeat 3 times
d--------------------------------3-2-0- 
a--------------------------------------
e--------------------------------------

e-0-7-9b10-9b10ub9p7/5-7-5-0
b---------------------------
g---------------------------
d---------------------------
a---------------------------
e---------------------------
[ Tab from: http://www.guitartabs.cc/tabs/m/misc_your_songs/good_song_tab_ver_2.html ]
e----5-0-5-3-5-------------------8-8-6-6   
b-0-3----------0-3-5-3---5p3-0-3-8-8-6-6         
g--------------------------------------
d--------------------------------------
a--------------------------------------
e--------------------------------------
  
e 0-3-5-3h5p3p0h3h5p3p0h3-0-----3---0-7-3-5p3p0-7-9-7----------------
b---------------------------3-----3-------------------9~~~7-9p7-5p0h3
g-----------------------------2--------------------------------------
d--------------------------------------------------------------------
a-------------------------0------------------------------------------
e--------------------------------------------------------------------

e-3p0----------------------------------------------------------
b--------------------------------------------------------------
g--------------------------------------------------------------
d------9--9-11-7-9/5-5-0-3-5-7---------------------------------
a-----10-10-10-8-8/6-6-0-3-5-7---------------------------------
e------------------------1-3-5-3-5-5-5-5-5-0-0-0h2h3-3-3p2p0---

e-------------------------------------
b-------------------------------------
g--------------1-2-3b4-2--------------
d-0-0-3-5b6-3-0----------0-3b4-0-0---0
a----------------------------------3-0
e-------------------------------------

e------------------------0
b-0-9-13b15-9h13b15-13-9-1
g------------------------3
d------------------------2
a------------------------3
e-------------------------
Comments