Misc Your Songs - Drifting Chords & Tabs

 

Drifting Chords & Tabs

Misc Your Songs Chords & Tabs

Version: 1 Type: Bass Tab 0 ratings
1 star 2 stars 3 stars 4 stars 5 stars
comments

Drifting Bass Tab

   
another one by moi every note you hit lightyly pluck g on open e at the same time
preferably played on accousitc bass standard tuning EADG

Beginning
G-0000000000000000000000000---
D------------------------335^-
A---------333333355555555-----
E-00000000---------------------
[ Tab from: http://www.guitartabs.cc/tabs/m/misc_your_songs/drifting_btab.html ]
Middle
G-0000000000000000000000000000
D-5^33------------------------
A-----5555555533333333--------
E---------------------00000000

End
G-0-0-0-0-0-------------------
D-------3-5^------------------
A---3-5-----------------------
E-0---------------------------

Beginning x 3
Middle x 1
Beginning x 3 
Middle x 1 
Beginning x 1 
Ending x 1
Comments