Misc Your Songs - Dc Chords & Tabs

 

Dc Chords & Tabs

Misc Your Songs Chords & Tabs

Version: 1 Type: Tab 0 ratings
1 star 2 stars 3 stars 4 stars 5 stars
comments

Dc Tab

i made this up at 5:00 in the morning

Drop D tunning

----------------------------
----------------------------
----------------------------
-0-4-0-4-5-0-4--------------     x5
-0-4-0-4-5-0-4--------------
-0-4-0-4-5-0-4--------------


----------------------------
----------------------------
----------------------------
----14-14-14--11-11-11-11-12-12-12-12-14-14-14-14----------
----14-14-14--11-11-11-11-12-12-12-12-14-14-14-14----------  x4
-4/-14-14-14--11-11-11-11-12-12-12-12-14-14-14-14----------

then
----------------------------
----------------------------
----------------------------
-12-12-12--11---------------
-12-12-12--11---------------
-12-12-12--11---------------
[ Tab from: http://www.guitartabs.cc/tabs/m/misc_your_songs/dc_tab.html ]
then the little solo
---------------------------------------------------------
---------------------------------------------------------
----------------------------12-13-14--12h14p12---14b--12-
-------------------12-13-14------------------------------
----------12-13-14---------------------------------------
-12-13-14------------------------------------------------

----------11--13b-11-------------------------------------
----11-13-------------13-13~~~~~~------------------------
-12------------------------------------------------------
---------------------------------------------------------
---------------------------------------------------------
---------------------------------------------------------

----------11----13p11-13p11-11--11-----13b-13b-13~~~~~~--
----11-13----13--------------------13--------------------
-12------------------------------------------------------
---------------------------------------------------------
---------------------------------------------------------
---------------------------------------------------------


then beginning x3

pyromaniac DC
Comments