Misc Your Songs - Brian Marshall - Land Of Frozen Devastation Chords & Tabs

 

Brian Marshall - Land Of Frozen Devastation Chords & Tabs

Misc Your Songs Chords & Tabs

Version: 1 Type: Tab 0 ratings
1 star 2 stars 3 stars 4 stars 5 stars
comments

Brian Marshall - Land Of Frozen Devastation Tab

   
                            Land of Frozen Devastation
                          As recorded by Brian Marshall

Music by Brian Marshall
Arranged by Brian Marshall
Transcribed by Brian Marshall

          F/D                 A5/D                 Eb/C                   C
    12 12 15 x x x       12 12 14 x x x       10 10 13 x x x       10 10 12 x x x

          D5                   C5                   Bb5                  F5
    12 12 12 x x x       10 10 10 x x x         8 8 8 x x x        15 15 15 x x x

          G5                   Eb5                  E5                  F#5/F
    17 17 17 x x x       13 13 13 x x x       14 14 14 x x x       15 16 16 x x x

         E5/Eb
    13 14 14 x x x

Gtr I (D A D G B E) - 'Guitar'
Gtr II (D A D G B E) - 'Guitar 2'
Gtr III (D A D G B E) - 'Solo'

   Intro
    Moderately Q=87
    F/DA5/D    A5/F/D     F/DA5/D    A5/F/D     F/DA5/F/DA5/D
   4/4
    Gtr I
     S  S  +S   S  S  +S   S  S  +S   S  S  +S   S  S  S  S
||----------------------------------------------------------|
||o---------------------------------------------------------|
||----------------------------------------------------------|
||--15p14--(x)-14h15--(x)-15p14--(x)-14h15--(x)-15p14-15p14-|
||o-12-12-(12)-12-12-(12)-12-12-(12)-12-12-(12)-12-12-12-12-|
||--12-12-(12)-12-12-(12)-12-12-(12)-12-12-(12)-12-12-12-12-|
|
|   Gtr II
|    PM------------------------------------------------------
|    S  S   S   S  S   S   S  S   S   S  S   S   S  S  S  S
||----------------------------------------------------------|
||o---------------------------------------------------------|
||----------------------------------------------------------|
||----------------------------------------------------------|
||o---------------------------------------------------------|
||--12-12--12--12-12--12--12-12--12--12-12--12--12-12-12-12-|


  Eb/G5/C    G5/Eb/C    Eb/G5/C    G5/Eb/C    Eb/G5/Eb/G5/C
   S  S  +S   S  S  +S   S  S  +S   S  S  +S   S  S  S  S
|----------------------------------------------------------||
|---------------------------------------------------------o||
|----------------------------------------------------------||
|-13p12--(x)-12h13--(x)-13p12--(x)-12h13--(x)-13p12-13p12--||
|-10-10-(10)-10-10-(10)-10-10-(10)-10-10-(10)-10-10-10-10-o||
|-10-10-(10)-10-10-(10)-10-10-(10)-10-10-(10)-10-10-10-10--||
|
|------------------------------------------------------|
|  S  S   S   S  S   S   S  S   S   S  S   S   S  S  S  S
|----------------------------------------------------------||
|---------------------------------------------------------o||
|----------------------------------------------------------||
|----------------------------------------------------------||
|---------------------------------------------------------o||
|-10-10--10--10-10--10--10-10--10--10-10--10--10-10-10-10--||


   Verse
    $
    D5          C5          D5          Bb5
    Gtrs I, II
     S  S  S  S  S  S  S  S  S  S  S  S S S S S
||----------------------------------------------|
||o---------------------------------------------|
||----------------------------------------------|
||--12-12-12-12-10-10-10-10-12-12-12-12-8-8-8-8-|
||o-12-12-12-12-10-10-10-10-12-12-12-12-8-8-8-8-|
||--12-12-12-12-10-10-10-10-12-12-12-12-8-8-8-8-|


  D5          C5          F5    G5    F5 G5 F5 D5
   S  S  S  S  S  S  S  S  S  S  S  S  S  S  S  S
|--------------------------------------------------|
|--------------------------------------------------|
|--------------------------------------------------|
|-12-12-12-12-10-10-10-10-15-15-17-17-15-17-15-12--|
|-12-12-12-12-10-10-10-10-15-15-17-17-15-17-15-12--|
|-12-12-12-12-10-10-10-10-15-15-17-17-15-17-15-12--|


  D5          C5          D5          Bb5
   S  S  S  S  S  S  S  S  S  S  S  S S S S S
|---------------------------------------------|
|---------------------------------------------|
|---------------------------------------------|
|-12-12-12-12-10-10-10-10-12-12-12-12-8-8-8-8-|
|-12-12-12-12-10-10-10-10-12-12-12-12-8-8-8-8-|
|-12-12-12-12-10-10-10-10-12-12-12-12-8-8-8-8-|


  D5          C5          G5/C  Eb/C  A5/D  F/D
   S  S  S  S  S  S  S  S  S  S  S  S  S  S  S  S
|---------------------------------------------------||
|--------------------------------------------------o||
|---------------------------------------------------||
|-12-12-12-12-10-10-10-10-12-12-13-13-14-14-15-15p--||
|-12-12-12-12-10-10-10-10-10-10-10-10-12-12-12-12--o||
|-12-12-12-12-10-10-10-10-10-10-10-10-12-12-12-12---||


   Chorus
    F/DA5/D    A5/F/D     F/D        A5/F/D     F/DA5/F/DA5/D
    Gtr I
     S  S  +S   S  S  +S   S  S  +S   S  S  +S   S  S  S  S
||----------------------------------------------------------|
||o---------------------------------------------------------|
||----------------------------------------------------------|
||--15p14--(x)-14h15--(x)-15p14--(x)-14h15--(x)-15p14-15p14-|
||o-12-12-(12)-12-12-(12)-12-12-(12)-12-12-(12)-12-12-12-12-|
||--12-12-(12)-12-12-(12)-12-12-(12)-12-12-(12)-12-12-12-12-|
|
|   Gtr II
|    PM------------------------------------------------------
|    S  S   S   S  S   S   S  S   S   S  S   S   S  S  S  S
||----------------------------------------------------------|
||o---------------------------------------------------------|
||----------------------------------------------------------|
||--12-12--12--12-14--14--14-14--15--15-15--15--16-16-16-16-|
||o-12-12--12--12-14--14--14-14--15--15-15--15--16-16-16-16-|
||--12-12--12--12-14--14--14-14--15--15-15--15--15-15-15-15-|


                                                   D.S.
  Eb/G5/C    G5/Eb/C    Eb/G5/C    G5/Eb/C    Eb/G5/Eb/G5/C
   S  S  +S   S  S  +S   S  S  +S   S  S  +S   S  S  S  S   3x
|-----------------------------------------------------------||
|----------------------------------------------------------o||
|-----------------------------------------------------------||
|-13p12--(x)-12h13--(x)-13p12--(x)-12h13--(x)-13p12-13p12---||
|-10-10-(10)-10-10-(10)-10-10-(10)-10-10-(10)-10-10-10-10--o||
|-10-10-(10)-10-10-(10)-10-10-(10)-10-10-(10)-10-10-10-10---||
|
|------------------------------------------------------|
|  S  S   S   S  S   S   S  S   S   S  S   S   S  S  S  S   3x
|-----------------------------------------------------------||
|----------------------------------------------------------o||
|-----------------------------------------------------------||
|-10-10--10--10-12--12--12-12--13--13-13--13--14-14-14-14---||
|-10-10--10--10-12--12--12-12--13--13-13--13--14-14-14-14--o||
|-10-10--10--10-12--12--12-12--13--13-13--13--13-13-13-13---||

[ Tab from: http://www.guitartabs.cc/tabs/m/misc_your_songs/brian_marshall_land_of_frozen_devastation_tab.html ]
   Interlude
    Gtr I
                    ~~~~~~~            ~~~
     S  S  S  S  S  E  +E    S  S   S  Q
||-----------------------------------------|
||o----------------------------------------|
||-----------------------------------------|
||--12-12-15-14-15-14-(14)-/15-14--15-14\--|
||o-12-12----------------------------------|
||--12-12----------------------------------|
|
|   Gtr II
|    S  S  H                    Q.
||-----------------------------------------|
||o----------------------------------------|
||-----------------------------------------|
||--12-12----------------------------------|
||o-12-12----------------------------------|
||--12-12----------------------------------|


                  ~~~~~~~            ~~~
   S  S  S  S  S  E  +E    S  S   S  Q     3x
|------------------------------------------||
|-----------------------------------------o||
|------------------------------------------||
|-10-10-13-12-13-12-(12)-/13-12--13-12\----||
|-10-10-----------------------------------o||
|-10-10------------------------------------||
|
|  S  S  H                    Q.           3x
|------------------------------------------||
|-----------------------------------------o||
|------------------------------------------||
|-10-10------------------------------------||
|-10-10-----------------------------------o||
|-10-10------------------------------------||


 Guitar Solo
  D5    C5    D5    C5    D5    C5    D5    C5
  Gtr III
   S  S  S  S  S  S  S  S  S  S  S  S  S  S  S  S
|-------------------------------------------------|
|-------------------------------------------------|
|----------------12p10-----------7--9-10-12-------|
|-12-12-15-14-15-------14-12-10-------------15p14-|
|-12-12-------------------------------------------|
|-12-12-------------------------------------------|
|
| Gtrs I, II
|  S  S  S  S  S  S  S  S  S  S  S  S  S  S  S  S
|-------------------------------------------------|
|-------------------------------------------------|
|-------------------------------------------------|
|-12-12-10-10-12-12-10-10-12-12-10-10-12-12-10-10-|
|-12-12-10-10-12-12-10-10-12-12-10-10-12-12-10-10-|
|-12-12-10-10-12-12-10-10-12-12-10-10-12-12-10-10-|


  D5    C5    D5    C5    D5    C5    D5    C5
   S  S  S  S  S  S  S  S  S  S  S  S  S  S  S  S
|-------------------------------------------------|
|-------------------------------------------------|
|-----------9-------------------------------------|
|-12p10-12----12-10----10-12-------13-15-14-10----|
|-------------------12-------13-15-------------12-|
|-------------------------------------------------|
|
|  S  S  S  S  S  S  S  S  S  S  S  S  S  S  S  S
|-------------------------------------------------|
|-------------------------------------------------|
|-------------------------------------------------|
|-12-12-10-10-12-12-10-10-12-12-10-10-12-12-10-10-|
|-12-12-10-10-12-12-10-10-12-12-10-10-12-12-10-10-|
|-12-12-10-10-12-12-10-10-12-12-10-10-12-12-10-10-|


     S  S  S  S  S  S  S  S  S  S  S  S  S  S  S  S
||--------------------------------------------------|
||o-------------------------------------------------|
||-----------12p10-----------7--9-10-12-------------|
||--15-14-15-------14-12-10-------------15p14-15p14-|
||o-------------------------------------------------|
||--------------------------------------------------|
|
|    S  S  S  S  S  S  S  S  S  S  S  S  S  S  S  S
||--------------------------------------------------|
||o-------------------------------------------------|
||--------------------------------------------------|
||--12-12-10-10-12-12-10-10-12-12-10-10-12-12-10-10-|
||o-12-12-10-10-12-12-10-10-12-12-10-10-12-12-10-10-|
||--12-12-10-10-12-12-10-10-12-12-10-10-12-12-10-10-|


   S  a  S  S  S  S  S  S  S  S  S  S  S  S  S  S  S
|-----------------------------------------------------||
|----------------------------------------------------o||
|-14-15h17-15-------------------------10-12-15--------||
|-------------14-15-14-12-10-12-10--8----------12-10--||
|----------------------------------------------------o||
|-----------------------------------------------------||
|
|  S     S  S  S  S  S  S  S  S  S  S  S  S  S  S  S
|-----------------------------------------------------||
|----------------------------------------------------o||
|-----------------------------------------------------||
|-12----12-10-10-12-12-10-10-12-12-10-10-12-12-10-10--||
|-12----12-10-10-12-12-10-10-12-12-10-10-12-12-10-10-o||
|-12----12-10-10-12-12-10-10-12-12-10-10-12-12-10-10--||


   Outro
    Gtr III
      S  S  +S    S  S  +S    S  S  +S    S  S  +S    S  S  S  S
||---------------------------------------------------------------|
||o--------------------------------------------------------------|
||---------------------------------------------------------------|
||--/15p14--(x)-/14h15--(x)-/15p14--(x)-/14h15--(x)-/15p14-15p14-|
||o--12-12-(12)--12-12-(12)--12-12-(12)--12-12-(12)--12-12-12-12-|
||---12-12-(12)--12-12-(12)--12-12-(12)--12-12-(12)--12-12-12-12-|
|
|   Gtrs I, II
|     S  S   S    S  S   S    S  S   S    S  S   S    S  S  S  S
||---------------------------------------------------------------|
||o--------------------------------------------------------------|
||---------------------------------------------------------------|
||---12-12--12---12-12--12---12-12--12---12-12--12---12-12-12-12-|
||o--12-12--12---12-12--12---12-12--12---12-12--12---12-12-12-12-|
||---12-12--12---12-12--12---12-12--12---12-12--12---12-12-12-12-|


    S  S  +S    S  S  +S    S  S  +S    S  S  +S   S  S  S  S   9x
|---------------------------------------------------------------||
|--------------------------------------------------------------o||
|---------------------------------------------------------------||
|-/13p12--(x)-/12h13--(x)-/13p12--(x)-/12h13--(x)-13p12-13p12---||
|--10-10-(10)--10-10-(10)--10-10-(10)--10-10-(10)-10-10-10-10--o||
|--10-10-(10)--10-10-(10)--10-10-(10)--10-10-(10)-10-10-10-10---||
|
|   S  S   S    S  S   S    S  S   S    S  S   S   S  S  S  S   9x
|---------------------------------------------------------------||
|--------------------------------------------------------------o||
|---------------------------------------------------------------||
|--10-10--10---10-10--10---10-10--10---10-10--10--10-10-10-10---||
|--10-10--10---10-10--10---10-10--10---10-10--10--10-10-10-10--o||
|--10-10--10---10-10--10---10-10--10---10-10--10--10-10-10-10---||


Duration Legend
---------------
W - whole; H - half; Q - quarter; E - 8th; S - 16th; T - 32nd; X - 64th; a - acciaccatura
+ - note tied to previous; . - note dotted; .. - note double dotted
Uncapitalized letters represent notes that are staccato (1/2 duration)
Irregular groupings are notated above the duration line
Duration letters will always appear directly above the note/fret number it represents the
duration for.  Duration letters with no fret number below them represent rests.  Multi-
bar rests are notated in the form Wxn, where n is the number of bars to rest for.  Low
melody durations appear below the staff

Tablature Legend
----------------
 h   - hammer-on
 p   - pull-off
 b   - bend
 pb  - pre-bend
 r   - bend release (if no number after the r, then release immediately)
 /\  - slide into or out of (from/to "nowhere")
 s   - legato slide
 S   - shift slide
  - natural harmonic
[n]  - artificial harmonic
n(n) - tapped harmonic
 ~   - vibrato
 tr  - trill
 T   - tap
 TP  - trem. picking
 PM  - palm muting
\n/  - tremolo bar dip; n = amount to dip
 \n  - tremolo bar down
 n/  - tremolo bar up
/n\  - tremolo bar inverted dip
 =   - hold bend; also acts as connecting device for hammers/pulls
 <>  - volume swell (louder/softer)
 x   - on rhythm slash represents muted slash
 o   - on rhythm slash represents single note slash

Misc Legend
-----------
 |  - bar
||  - double bar
||o - repeat start
o|| - repeat end
*|  - double bar (ending)
 :  - bar (freetime)
 $  - Segno
 &  - Coda
Tempo markers -  = BPM(8/16=s8/s16), where s8 = swing 8ths, s16 = swing 16ths
Comments