Misc Your Songs - Bigdavedude182 - Multiple Thoughts Chords & Tabs

 

Bigdavedude182 - Multiple Thoughts Chords & Tabs

Misc Your Songs Chords & Tabs

Version: 1 Type: Tab 0 ratings
1 star 2 stars 3 stars 4 stars 5 stars
comments

Bigdavedude182 - Multiple Thoughts Tab

This is a song I made up on my new black mirror
strat and I think it's quite cool

drop D tuning

intro/verse
e|-----------------------------------|
B|-----------------------------------|
G|-7--7--9--11-9--7--6--7--7--6/4\6--|
D|-x--x--x--x--x--x--x--x--x--x/x\x--|
A|-5--5--7--9--7--5--4--5--5--4/2\4--|
D|-0--0--0--0--0--0--0--0--0--0-0-0--|

e|-----------------------------------|
B|-----------------------------------|
G|-7--7--9--11-9--7--6--7--7--6/4\6--|
D|-x--x--x--x--x--x--x--x--x--x/x\x--|
A|-5--5--7--9--7--5--4--5--5--4/2\4--|
D|-0--0--0--0--0--0--0--0--0--0-0-0--|

e|-----------------------------------|
B|-----------------------------------|
G|-7--7--9--11-9--7--6--7--7--6/4\6--|
D|-x--x--x--x--x--x--x--x--x--x/x\x--|
A|-5--5--7--9--7--5--4--5--5--4/2\4--|
D|-0--0--0--0--0--0--0--0--0--0-0-0--|

e|-----------------------------------|
B|-----------------------------------|
G|-7--7--9--11-9--7--6--7--7--6/4\6--|
D|-x--x--x--x--x--x--x--x--x--x/x\x--|
A|-5--5--7--9--7--5--4--5--5--4/2\4--|
D|-0--0--0--0--0--0--0--0--0--0-0-0--|

chorus
e|--------------------------|
B|--------------------------|
G|--------------------------|
D|-7-7--5-5-4--2-2-2-2-0-2--|x3
A|-7-7--5-5-4--2-2-2-2-0-2--|
D|-7-7--5-5-4--2-2-2-2-0-2--|
[ Tab from: http://www.guitartabs.cc/tabs/m/misc_your_songs/bigdavedude182_multiple_thoughts_tab.html ]
e|-------------------------|
B|-------------------------|
G|-------------------------|
D|-0-0--5-5-4--2----4-5-4--|
A|-0-0--5-5-4--2--5--------|
D|-0-0--5-5-4--2-----------|

interlude
WB ~~~~ ~~~~    ~~~~ ~~~~
e|-2----3---------------------15~-14~--|
B|-3----3-------15---15----------------|
G|-2----2---x2--14---14---x2-----------|
D|-0----0-------12---12----------------|
A|-------------------------------------|
D|-------------------------------------|

e|---------------------------------|
B|-3-------------------------------|
G|-2-------------------------------|
D|-0-------------------------------|x10
A|-0--0-0-0-0-0-0-0-0-0-0-0-0-0-0--|(increasing speed
D|-0--0-0-0-0-0-0-0-0-0-0-0-0-0-0--|each time)
PM    . . . . . . . . . . . . . .

solo
e|-------------------------------------|
B|-------------------------------------|
G|-7-7-7-7-7-7-6--9-9-9-11-12-11-9-11--|
D|-x-x-x-x-x-x-x--x-x-x-x--x--x--x-x---|
A|-5-5-5-5-5-5-4--7-7-7-9--10-9--7-9---|
D|-------------------------------------|

e|----------------------------------------|
B|----------------------------------------|
G|-7-7-7-7-7-7-6--9-9-11-12-11-12-11-7-9--|
D|-x-x-x-x-x-x-x--x-x-x--x--x--x--x--x-x--|
A|-5-5-5-5-5-5-4--7-7-9--10-12-10-9--5-7--|
D|----------------------------------------|

e|---------------------|
B|---------------------|
G|-7-7-7-7--9-10-9--6--|
D|-x-x-x-x--x-x--x--x--|x4
A|-5-5-5-5--7-8--7--4--|
E|---------------------|
Comments