Misc Your Songs - Berner Ryan - Guitar Solo Chords & Tabs

 

Berner Ryan - Guitar Solo Chords & Tabs

Misc Your Songs Chords & Tabs

Version: 1 Type: Tab 0 ratings
1 star 2 stars 3 stars 4 stars 5 stars
comments

Berner Ryan - Guitar Solo Tab

I wrote this just playing around one day, I hope you enjoy! Play with a fast
tempo.     -Ryan Berner


e|--15--15--15--12----------------------------------------------------------
B|------------------15--12---------0h3^-------------------------------------
G|--------------------------0h1h2-------0-----------12h14^---------0h2^-----
D|----------------------------------------12h13h14----------0h1h2-----------
A|--------------------------------------------------------------------------
E|--------------------------------------------------------------------------
[ Tab from: http://www.guitartabs.cc/tabs/m/misc_your_songs/berner_ryan_guitar_solo_tab.html ]
e|-------------------------------------12--12--15---------------------------
B|-----------------------------12--15--------------12--15-------------------
G|-----------12h14^--12h13h14-----------------------------12-------0h2^-----
D|-12h13h14--------------------------------------------------0h1h2----------
A|--------------------------------------------------------------------------
E|--------------------------------------------------------------------------

e|----------------------------------------0-0-3---------0-------------------
B|------------------------------------0h3-------0-3-----0-------------------
G|----------12h14^-------0h2^--0h1h2----------------0---1-------------------
D|-12h13h14--------0h1h2--------------------------------2-------------------
A|------------------------------------------------------2-------------------
E|------------------------------------------------------0-------------------
Comments