Misc Your Songs - Ben Dean - Alcoholic Sweat Chords & Tabs

 

Ben Dean - Alcoholic Sweat Chords & Tabs

Misc Your Songs Chords & Tabs

Version: 1 Type: Tab 0 ratings
1 star 2 stars 3 stars 4 stars 5 stars
comments

Ben Dean - Alcoholic Sweat Tab

   
Ben Dean- me, and i am looking for feedback
Artist: Ben Dean
Song: Alcoholic Sweat
Album: This is my shit so dnt try to say its yours!

Intro
|----------------------|
|----------------------|
|--7-------------------|
|--5-55555555-5-5~7-7--|
|-------------3-3~5-5--|
    {   p.m. }

Riff
|------------------------------------|
|------------------------------------|
|------------------------------------|
|--0--234------------4-2-------0-----|
|--5--------5-4-2-2------4-4~5-5-----|
|------------------------------------| x3
then
|---------------------------------|
|---------------------------------|
|---------------------------------|
|--0--234-------4-2-0-0-0-0-0-----|
|--5-----5-4-2-2----5-5~4~5-5-----|
|---------------------------------|

Main Chorus
|---------------------------------------------------|
|---------------------------------------------------|
|---------------------------------------------------|
|-----4-4-4-------5-5-5------5--5--5----5--5--5~4---|
|-55--5-5--0-----------0----------------------------|
|---------------55-5-5----33--3--3---333--3-3-------|x2
[ Tab from: http://www.guitartabs.cc/tabs/m/misc_your_songs/ben_dean_alcoholic_sweat_tab.html ]
Chorus A
|------------------------------------|
|------------------------------------|
|------------------------------------|
|-7x8----------7x8-------------------|
|-5x8-4x8-5x16-5x8-4x8-5x16~4x4~5x4--|
|-----5x8-3x16-----5x8-3x16~2x4~3x4--|x2
then back to main chorus
|----------------------------------------------|
|----------------------------------------------|
|----------------------------------------------|
|---4-4-4------5-5-5-----5-5-5------5-5-5~4----|
|-55-5-5--0----------0-------------------------|
|------------55-5-5----33-3-3----333-3-3-------|x2

Chorus B
|--------------------------------------|
|--------------------------------------|
|--------------------------------------|
|--7x8-------------7x8-----------------|
|--5x8-7x8~5x16-7--5x8-7x8~5x8~4x4~5x4-|
|------5x8~3x16~5------5x8~3x8~2x4~3x4-|x3
then
|--------------------------------------------------|
|--------------------------------------------------|
|-----7-7------------------------------------------|
|--777777----7----7--------------------------------|
|--555555-7777-7777~5-5-5-55-----------------------|
|---------5555-5555~3-3-3-33-----------------------|

Riff
|---------------------------------|
|---------------------------------|
|---------------------------------|
|--0--234-----------4-2-------0---|
|--5-------5-4-2-2-----4-4~5-5----|
|---------------------------------| x3
then
|-------------------------------|
|-------------------------------|
|-------------------------------|
|--0--234--------4-2-0-0-0-0-0--|
|--5------5-4-2-2----5-5~4~5-5--|
|-------------------------------|

Email me for comments at Seminole13@worldnet.att.net PLEASE!
i would really appreciate some feedback! thanks
Comments