Misc Your Songs - Bass Funk Rockers Chords & Tabs

 

Bass Funk Rockers Chords & Tabs

Misc Your Songs Chords & Tabs

Version: 1 Type: Bass Tab 0 ratings
1 star 2 stars 3 stars 4 stars 5 stars
comments

Bass Funk Rockers Bass Tab

this is the solo to my song
it is in standard tuning (eadg)
180 bpm
slap all
t=slap
p=pop


g---------------7-5|
d-----5-----3h5----|
a-------3h5--------|
e--33--------------|
   tt p t   p   p p
[ Tab from: http://www.guitartabs.cc/tabs/m/misc_your_songs/bass_funk_rockers_btab.html ]
g---------------5|this note, hold it for 1 second
d-----5-----3h5--|
a-------3h5------|
e--33------------| 
   tt p t   p   p
g---------------7-5-4-3-2-0-3-2-0|
d-----5-----3h5------------------|
a-------3h5----------------------|
e--33----------------------------|
   tt p t   p   p p p p p p p p p

thats it play it twice it sounds so cool if you play it fast or slow
Comments