Misc Your Songs - Anderson Mick - Once Upon A Time Chords & Tabs

 

Anderson Mick - Once Upon A Time Chords & Tabs

Misc Your Songs Chords & Tabs

Version: 1 Type: Tab 0 ratings
1 star 2 stars 3 stars 4 stars 5 stars
comments

Anderson Mick - Once Upon A Time Tab

   
----------------
Once Upon A time
----------------

Tabbed by:Mick Anderson

Tuning:DADGAD

| /  slide up
| h  hammer-on
| p  pull-off
| ~  vibrato
| *  harmonic


Capo 4th fret

D|------------------------------------------------------------------|
A|------------------------------------------------------------------|
G|-----0-------0-------0-------0-------0-------0-------0-------0----|
D|---0--0-0--0--0-0--0--0-0--0--0-0--0--0-0--0--0-0--0--0-0--0--0-0-|
A|--9-9--9--9-9--9--9-9--9--9-9--9--9-9--9--9-9--9--9-9--9--9-9--9--|
D|-9-------7-------5-------7-------9-------7-------5-------5--------|

D|--------------------|
A|--------------------|
G|--------------------|
D|---0--0--0--0--0----|
A|--9--9--9--9--9-----|
D|-9--7--5--7--5--0~--|

D|------------------------------------------------------------------|
A|------------------------------------------------------------------|
G|-----0-------0-------0-------0-------0-------0-------0-------0----|
D|---0--0-0--0--0-0--0--0-0--0--0-0--0--0-0--0--0-0--0--0-0--0--0-0-|
A|--9-9--9--9-9--9--9-9--9--9-9--9--9-9--9--9-9--9--9-9--9--9-9--9--|
D|-9-------7-------5-------7-------9-------7-------5-------5--------|

D|-------------------------------------------------------------------|
A|-------------------------------------------------------------------|
G|-------------------------------------------------------------------|
D|---0--0--0--0--0---0--0--0--0--0----0--0--0--0--0---0--0--0--0--0--|
A|--9--9--9--9--9---9--9--9--9--9----9--9--9--9--9---9--9--9--9--9---|
D|-9--7--5--7--5--0~--9--7--5--7----9--7--5--7--5--0~--9--7--5--7----|

D|------------0-00------------0-00------------0-00-----------------|
A|------------0-00------------0-00------------0-00-----------------|
G|-------<13>-0-00-------<13>-0-00-------<13>-0-00-----------------|
D|-------<13>-0-00-------<13>-0-00-------<13>-0-00-----------------|
A|-0h9-9-----------0h7-7-----------0h5-5----------p0-0h555-0h555p0-|
D|-0h9-9-----------0h7-7-----------0h5-5----------p0-0h555-0h555p0-|

D|------------------------------------------------------------------|
A|------------------------------------------------------------------|
G|-----0-------0-------0-------0-------0-------0-------0-------0----|
D|---0--0-0--0--0-0--0--0-0--0--0-0--0--0-0--0--0-0--0--0-0--0--0-0-|
A|--9-9--9--9-9--9--9-9--9--9-9--9--9-9--9--9-9--9--9-9--9--9-9--9--|
D|-9-------7-------5-------7-------9-------7-------5-------5--------|
[ Tab from: http://www.guitartabs.cc/tabs/m/misc_your_songs/anderson_mick_once_upon_a_time_tab.html ]
D|---------------------------0--------------------------------0-----|
A|-----0-------0-------0----0-0---------0-------0-------0----0-0----|
G|------0-------0-------0--0---0---------0-------0-------0--0---0---|
D|---0----0--0----0--0----0-----0-----0----0--0----0--0----0-----0--|
A|--9-9--9--9-9--9--9-9--9-------9---9-9--9--9-9--9--9-9--9-------9-|
D|-9-------7-------5----------------9-------7-------5---------------|

D|-------------------------------------------------------------------|
A|-------------------------------------------------------------------|
G|-------------------------------------------------------------------|
D|---0--0--0--0--0---0--0--0--0--0----0--0--0--0--0---0--0--0--0--0--|
A|--9--9--9--9--9---9--9--9--9--9----9--9--9--9--9---9--9--9--9--9---|
D|-9--7--5--7--5--0~--9--7--5--7----9--7--5--7--5--0~--9--7--5--7----|

D|---0~--|
A|---0~--|
G|---0~--|
D|---0~--|
A|---0~--|
D|-0-----|

D|----------0-00--------------0-00--------------0-00--------00-----00-|
A|----------0-00--------------0-00--------------0-00--------00-----00-|
D|-----<13>-0-00---------<13>-0-00---------<13>-0-00--------00-----00-|
G|-----<13>-0-00---------<13>-0-00---------<13>-------------00-----00-|
B|0h9-9---------p0--0h7-7---------p0--0h5-5---------p0-0h5-5--0h5-5---|
D|0h9-9---------p0--0h7-7---------p0--0h5-5---------p0-0h5-5--0h5-5---|

D|----------0-00--------------0-00--------------0-00--------00-----00-|
A|----------0-00--------------0-00--------------0-00--------00-----00-|
D|-----<13>-0-00---------<13>-0-00---------<13>-0-00--------00-----00-|
G|-----<13>-0-00---------<13>-0-00---------<13>-------------00-----00-|
B|0h9-9---------p0--0h7-7---------p0--0h5-5---------p0-0h5-5--0h5-5---|
D|0h9-9---------p0--0h7-7---------p0--0h5-5---------p0-0h5-5--0h5-5---|

D|------------------------0----------0----|
A|------0--------0---------0--------0-----|
G|-------0--------0---------0------0------|
D|-----------------0----------------------|
A|-0h9-9--9-0h7-7----0h5-5----0h5-5---p0--|
D|-0h9-9----0h7-7----0h5-5----0h5-5---p0--|

D|---------------0---------0-----0---0~-------|
A|------0---------0---------0---0-0-0-0~------|
G|-------0---------0---------0-0---0---0~-----|
D|------------------0---------0---------0~----|
A|-0h9-9--9-0h7-7-----0h5-5--------------0~---|
D|-0h9-9----0h7-7-----0h5-5---------------0~--|

D|---------------------*5*-*7*------0~--|
A|--------------------*5*---*7*-----0~--|
G|-----------2/4p0---*5*-----*7*----2~--|
D|------2/4p0-------*5*-------*7*---0~--|
A|-2/4p0-----------*5*---------*7*--0~--|
D|----------------*5*-----------*7*-0~--|

Questions or Comments email:Mightymick01@hotmail.com
Comments