Misc Your Songs - 69 - Revolution Chords & Tabs

 

69 - Revolution Chords & Tabs

Misc Your Songs Chords & Tabs

Version: 1 Type: Bass Tab 0 ratings
1 star 2 stars 3 stars 4 stars 5 stars
comments

69 - Revolution Bass Tab

   
69 - Revolution
Tabbed by: Xavieres
Bass tab: B,F#,B,E

Riff 1: x16
G|--------------------------------|
D|--------------------------------|
A|--------------------------------|
D|0-0-8-8-7-7-0-0-3-3-5-5-3-3-2-2-|


Riff 2:
G|--------------------------------|--------------------------------|
D|--------------------------------|--------------------------------|
A|--------------------------------|--------------------------------|
D|0-0-8-8-7-7-8-8-7-7-8-8-3-3-2-2-|0-0-8-8-7-7-8-8-8-------3-3-2-2-|
 \_______________x3________________/


Riff 3: x12
G|--------------------------------|
D|--------------------------------|
A|--------------------------------|
D|0-0-8-8-7-7-0-0-3-3-5-5-3-3-2-2-|

[ Tab from: http://www.guitartabs.cc/tabs/m/misc_your_songs/69_revolution_btab.html ]
Riff 4:
G|--------------------------------|--------------------------------|
D|--------------------------------|--------------------------------|
A|--------------------------------|--------------------------------|
D|0-0-8-8-7-7-8-8-7-7-8-8-3-3-2-2-|0-0-8-8-7-7-8-8-8-------3-3-2-2-|
 \_______________x3________________/


Riff 5: x8
G|--------------------------------|
D|--------------------------------|
A|--------------------------------|
D|0-0-8-8-7-7-0-0-3-3-5-5-3-3-2-2-|


Riff 6: x8
G|--------------------------------|
D|--------------------------------|
A|--------------------------------|
D|0---0---0---0---3---3---2---2---|


Riff 4:
G|--------------------------------|--------------------------------|
D|--------------------------------|--------------------------------|
A|--------------------------------|--------------------------------|
D|0-0-8-8-7-7-8-8-7-7-8-8-3-3-2-2-|0-0-8-8-7-7-8-8-8-------3-3-2-2-|
 \_______________x3________________/


Riff 5: x8
G|--------------------------------|
D|--------------------------------|
A|--------------------------------|
D|0-0-8-8-7-7-0-0-3-3-5-5-3-3-2-2-|
Comments