Misc Wwf - Wwf Themes Part4 Chords & Tabs

 

Wwf Themes Part4 Chords & Tabs

Misc Wwf Chords & Tabs

Version: 1 Type: Tab 0 ratings
1 star 2 stars 3 stars 4 stars 5 stars
comments

Wwf Themes Part4 Tab

wwf themes.
Tabbed by ollyninny@hotmail.com.
  
Title : WWF Theme tunes
Author : James .A. Johnston
Transcribed : Olly Williams

Lita
Its close enough , even slightly in the wrong key!

E  -----------------------------------------
B  -----------------------------------------
G  -----------------------------------------
D  -----------------------------------------
A   --4-4---4-5---4-4---4-4---4-5---3-4
E   --2-2---2-3---2-2---2-2---2-3---1-2   Back to start
 
Later on it goes :

E  ---------------------------
B  ---------------------------
G  ---------------------------
D  ---------------------------
A  -4-4--4-5--4-4-4-4-5-4
E  -2-2--2-3--2-2-2-2-3-2-

Raven

Its kinda hard to pick up but its okay , it also sounds like Lita’s
[ Tab from: http://www.guitartabs.cc/tabs/m/misc_wwf/wwf_themes_part4_tab.html ]
E  -----------------------------
B  -----------------------------
G  -----------------------------
D  ---------x-----------------
A  -4-4-4-4-5-4-4-4-4--5---
E  -2-2-2-2-3-2-2-2-2--3--- 
            x
X = Scratch
 
Again , later it goes

E  -------------------------------
B  -------------------------------
G  -------------------------------
D  -------------------------------
A  -4-4-4-4-5-4-4-4-4-8--6--5
E  -2-2-2-2-3-2-2-2-2-5--4—3

The One Billy Gun

Tune a half tone down and it sounds better.

E  -------------------------------
B  -------------------------------
G  -------------------------------
D  -----8-6-6---8--------8-6-6-
A  –6---6-4-4---6-6-6---6-4-4-
E  -4---------------4-4-----------

send to me for mistakes at ollyninny@hotmail.com

 
:: Ultimate Guitar Archive :: 
http://www.ultimate-guitar.com 

Comments