Misc Wwf - Undertaker Theme Chords & Tabs

 

Undertaker Theme Chords & Tabs

Misc Wwf Chords & Tabs

Version: 1 Type: Tab 0 ratings
1 star 2 stars 3 stars 4 stars 5 stars
comments

Undertaker Theme Tab

WWE Wrestling - Undertaker Theme
Tabbed By: Dan Croy
EMail: Triplasphere@aol.com

as debuted at the Judgment Day Pay Per View
Standard Tuning

Riff 1
---------|---------|
---------|---------|
-2--4-4--|-----2---|
-2--4-4--|-2-4-2-2-|
-0--2-2--|-2-4-0-2-|
---------|-0-2---0-|

Riff 2
-------------------------------------|
-------------------------------------|
-2--4-4-4--2--4-4-4--2--4-4-4--------|
-2--4-4-4--2--4-4-4--2--4-4-4--2--4--|
-0--2-2-2--0--2-2-2--0--2-2-2--2--4--|
-------------------------------0--2--|
[ Tab from: http://www.guitartabs.cc/tabs/m/misc_wwf/undertaker_theme_tab.html ]
---------------------------------------|
---------------------------------------|
-2--4-4-4--2--4-4-4--2--4-4-4----------|
-2--4-4-4--2--4-4-4--2--4-4-4--2-2-4-4-|
-0--2-2-2--0--2-2-2--0--2-2-2--2-2-4-4-|
-------------------------------0-0-2-2-|
===========WWF
"Undertaker Theme"
Josh Easton, Pontiac, IL
master_o_puppets86@hotmail.com

This may be the old theme guitar. I kinda quit
watching wrestling, so I'm not sure. It's from     before he came back.

E-------------------------------
B-------------------------------
G-------------------------------
D-------------------------------
A-------------------------------
E----7-0-0-0-9-0-9-7-0-0-0-9----
Comments