Misc Wwf - Steve Blackman Theme Chords & Tabs

 

Steve Blackman Theme Chords & Tabs

Misc Wwf Chords & Tabs

Version: 1 Type: Tab 0 ratings
1 star 2 stars 3 stars 4 stars 5 stars
comments

Steve Blackman Theme Tab

Song: WWF theme Steve Blackman
Tabbed by: Marco Hulleman


This is the old theme of Steve Blackman

----------------------
----------------------
----------------------    Play this part 2 times
----------------------
--4-44-222--6-6-7-6---
--2-22-000--4-4-5-4---

[ Tab from: http://www.guitartabs.cc/tabs/m/misc_wwf/steve_blackman_theme_tab.html ]
----------------------
----------------------
----------------------
----------------------
-44--66--22--276------
-22--44--00--054------


----------------------
----------------------
----------------------
----------------------
-44--66--22--24-------
-22--44--00--02-------


And then start over again. Thats the song. It is very easy to play. 
Remembers it is the old theme of Steve Blackman.
Comments