Misc Wwf - Kane Theme Chords & Tabs

 

Kane Theme Chords & Tabs

Misc Wwf Chords & Tabs

Version: 1 Type: Tab 0 ratings
1 star 2 stars 3 stars 4 stars 5 stars
comments

Kane Theme Tab

Kane's Entrance Music

Standard E Tuning

Someone asked for this song so I did my best to tab it and here it is. I think
there's some effect used in the song but i dont know what it is so I just use distortion.

E----------------------------------------------------|
B----------------------------------------------------|
G------------------------------3v~-6-5b-3---------5b-|
D-----------------------------------------5----------|
A-3h5p3-4h5p4-3~-3h5p3-4h5p4-3~-------------3h5p3----|
E----------------------------------------------------|
[ Tab from: http://www.guitartabs.cc/tabs/m/misc_wwf/kane_theme_tab.html ]
E------------------------------------------------|
B----------------------------------2-------------|
G-------------------------------3b---5/6-3b-1----|
D---------------------------------------------3b-|
A-3h5p3-4h5p4-3~-3h5p3-4h5p4-3~------------------|
E------------------------------------------------|

E------------------------------------|
B------------------------------------|
G--------3-5/6-3-1-------------------|
D-8~-10~-----------1/3\1-1-----------|
A--------------------------1h3-1-0---|
E----------------------------------0-|

E----------------------|
B-----------------3-5b-|
G-----------10---------|
D-8~-10~-8~----10------|
A----------------------|
E----------------------|
Comments