Misc Wwf - Dx Theme Chords & Tabs

 

Dx Theme Chords & Tabs

Misc Wwf Chords & Tabs

Version: 2 Type: Tab 0 ratings
1 star 2 stars 3 stars 4 stars 5 stars
comments

Dx Theme Tab

Degeneration X Theme
written by ?
as performed on ?
tab by Phil Boyle; phil@encycmet.com


Tune all guitars down 1/2 step
1)
Gb-----
Db--2~~
Ab-----
Eb-----
neck pickup
"Are you ready?"


2)
Gb---------------------------
Db--2-2-2-0---2-2------------
Ab----------------2-2-3-3-0-0
Eb---------------------------
neck pickup cleanish
"You think you can tell us what to do?"

[ Tab from: http://www.guitartabs.cc/tabs/m/misc_wwf/dx_theme_tab_ver_2.html ]
3)
Gb---------------------------------------------------
Db--2-2-2-0---2-2-0-0-2-2---2-2-2-0---2-2------------
Ab----------------------------------------2-2-3-3-0-0
Eb---------------------------------------------------
bridge
"Degenerate into something fool"


4)
Gb----------------------------------------------
Db----2-0-2~~-------------------2-0-2~~---------
Ab-----------2--3--0-------------------2--3-----
Eb--0-----------------3-2-0---0--------------3~~
"...little man.  Break it down"


5)
Db--2-2
Ab--2-2
Eb--0-0
During the verses after


I don't know if this is the whole song, I've never 
heard more than what they play when
they walk down to the ring.
Phil
Comments