Misc Video Games - The Legend Of Zelda Chords & Tabs

 

The Legend Of Zelda Chords & Tabs

Misc Video Games Chords & Tabs

Version: 1 Type: Tab 2 ratings
1 star 2 stars 3 stars 4 stars 5 stars
comments

The Legend Of Zelda Tab

   
Intro:
======

--------------------------------------------------------------------
--------------------------------------------------------------------
-15-----------15-15-15--15-15---13-15-------15-15-15--15-15---13-15-
--------------------------------------------------------------------
--------------------------------------------------------------------
--------------------------------------------------------------------


---------------------------------------------------------------------
---------------------------------------------------------------------
-15-15-15--15-15---------------------------------------------15------
-----------------15-15-15--15-15-15--15-15-15--15-15-15--15-------15-
---------------------------------------------------------------------
---------------------------------------------------------------------

Riff A:
========

----------------13------------------16-18---------18--18-18--16----16---------
-------13-15-16------------18-18-19-----------------------------19------19-18-
-15-15------------------------------------------------------------------------
------------------------------------------------------------------------------
------------------------------------------------------------------------------
------------------------------------------------------------------------------

----------------------------------------------------------------------------
-18----16--16h18h19--------18--16--14--14h16h18--------16--14--13--13h15h17-
----------------------------------------------------------------------------
----------------------------------------------------------------------------
----------------------------------------------------------------------------
----------------------------------------------------------------------------

-15----13-------------------------------------------
----------------------------------------------------
---------------------------------------------15-----
-----------15-15-15--15-15-15--15-15-15--15------15-
----------------------------------------------------
----------------------------------------------------

Riff B:
=======

----------------13------------------16-18-----------21----20----17-------
-------13-15-16------------18-18-19--------------------------------------
-15-15-------------------------------------------------------------------
-------------------------------------------------------------------------
-------------------------------------------------------------------------
-------------------------------------------------------------------------

|--------------------18----17-----------------|
|-18----19-----------------------18-----------|
|---------------------------------------------|
|---------------------------------------------|
|---------------------------------------------|
|---------------------------------------------| x2

--------------------14----13-------------------------------------------
-15----16-----------------------14-----------------13--13h15h17--------
---------------------------------------------15------------------------
-----------------------------------------------------------------------
-----------------------------------------------------------------------
-----------------------------------------------------------------------

-15----13-------------------------------------------
----------------------------------------------------
---------------------------------------------15-----
-----------15-15-15--15-15-15--15-15-15--15------15-
----------------------------------------------------
----------------------------------------------------

...and back to Riff A.



ONE OCTAVE LOWER... FOR TWO GUITARS:
====================================

G1 --------------------------------------------------------
U  --------------------------------------------------------
I  --3----3--3-3-3-3--1-3----3-3-3-3--3--1-3----3-3-3-3-3--
T  --------------------------------------------------------
A  --------------------------------------------------------
R  --------------------------------------------------------

G2 --------------------------------------------------------
U  --------------------------------------------------------
I  --------------------------------------------------------
T  --------------------------------------------------------
A  --5----5--5-5-5-3--3-3------3-3-3--4--4-4----4-4-4-4-4--
R  --------------------------------------------------------

Play the intro once. When you get to the end of the song, come back here.

G1 -----------------------------------------------1--------------
U  -----------------------------------------1-3-4----------------
I  --------------------------3----------3-3----------------------
T  --3-3-3--3-3-3--3-3-3--3-----3--------------------------------
A  --------------------------------------------------------------
R  --------------------------------------------------------------

G2 -----------------------------------------------------------1--
U  -----------------------------------------------------1-3-4----
I  -------------------------------------------------3-3----------
T  ---------------------------------------------0-1--------------
A  -----------------------------------------2-3------------------
R  --5-5-5--5-5-5--5-5-5--5--5--5-5-3-5-5-5----------------------


G1 --1--1-2-4-7-----------7-7-7-4-2-4-2-1------------
U  --------------------------------------------------
I  --------------------------------------------------
T  --------------------------------------------------
A  --------------------------------------------------
R  --------------------------------------------------

G2 --1-----------------------------------------------
U  ---------1-2--------1-3-3--3-1---2----------------
I  -----2-3----------3------------3---1-1-1--1-1--1--
T  --------------4-4------------------------4--------
A  --------------------------------------------------
R  --------------------------------------------------


G1 --1---------1-2----------1-----------1-------------------0----------1-----
U  --------4-4-----------------4--2-2-4---------4--3--1-1-3------------------
I  --------------------------------------------------------------------------
T  --------------------------------------------------------------------------
A  --------------------------------------------------------------------------
R  --------------------------------------------------------------------------

G2 --------------------------------------------------------------------------
U  -----------------------------------------------------------------------2--
I  --1---1-------------------------------------------------------------------
T  ----4---4---43/4-64/8--6--4--3-32/3-3/4/6--5--3--2----2--3-5-5/7-8-----
A  --------------------------------------------------------------------------
R  --------------------------------------------------------------------------


G1 --1----------------------------------------------1--------------
U  -------------------------------------------1-3-4----------------
I  ----------------------------3----------3-3----------------------
T  ----3-3-3--3-3-3--3-3-3--3-----3--------------------------------
A  ----------------------------------------------------------------
R  ----------------------------------------------------------------

G2 -------------------------------------------------------------1--
U  -------------------------------------------------------1-3-4----
I  --2------------------------------------------------3-3----------
T  -----------------------------------------------0-1--------------
A  -------------------------------------------2-3------------------
R  ----5-5-5--5-5-5--5-5-5--5--5--5-5-3-5-5-5----------------------


G1 --1--1-2-4-7------------9----8----5--------1----2------------7----5----1--
U  --------------------------------------------------------------------------
I  --------------------------------------------------------------------------
T  --------------------------------------------------------------------------
A  --------------------------------------------------------------------------
R  --------------------------------------------------------------------------

G2 --1---------------------0-------------------------------------------------
U  ---------1-2-----------------4----1-------------0------------2----1-------
I  -----2-3-----------------------------------2---------------------------2--
T  --------------------------------------------------------------------------
A  --------------------------------------------------------------------------
R  --------------------------------------------------------------------------


G1 ------1----2------------7----5----1--------------------------2----1-------
U  -------------------------------------------3----4----------------------2--
I  --------------------------------------------------------------------------
T  --------------------------------------------------------------------------
A  --------------------------------------------------------------------------
R  --------------------------------------------------------------------------

G2 --------------------------------------------------------------------------
U  -----------0------------2----1-------------------------------0------------
I  ------2---------------------------2--------1----------------------3-------
T  ------------------------------------------------4----------------------3--
A  --------------------------------------------------------------------------
R  --------------------------------------------------------------------------


G1 -----------------0----------1-----
U  -----------1-1-3------------------
I  ------3---------------------------
T  ----------------------------------
A  ----------------------------------
R  ----------------------------------

G2 ----------------------------------
U  -------------------------------2--
I  ----------------------------------
T  ------0----2-----2--3-5-5/7-8-----
A  ----------------------------------
R  ----------------------------------

Bb Ab
  e-6-------------------6---6-6---6|-6---4-6-------------6---6-6---6|
  B--------------------------------|--------------------------------|
  G--------------------------------|--------------------------------|
  D--------------------------------|--------------------------------|
  A--------------------------------|--------------------------------|
  E--------------------------------|--------------------------------|
  | |
  e--------------------------------|--------------------------------|
  B--------------------------------|--------------------------------|
  G-7-------------------7---7-7---7|-5---5-5-----------------5-5---5|
  D--------------------------------|--------------------------------|
  A--------------------------------|--------------------------------|
  E--------------------------------|--------------------------------|
  | |
  G--------------------------------|--------------------------------|
  D--------------------------------|--------------------------------|
  A--------------------------------|--------------------------------|
  E-6-------6-6---6-6-------6-6---6|-4-------4-4---4-4-------4-4---4|
[ Tab from: http://www.guitartabs.cc/tabs/m/misc_video_games/the_legend_of_zelda_tab.html ]
  F# F
  e-6---4-6-------------6---6-6---6|-6---1-1-1---1-1-1---1-1-1---1--|
  B--------------------------------|--------------------------------|
  G--------------------------------|--------------------------------|
  D--------------------------------|--------------------------------|
  A--------------------------------|--------------------------------|
  E--------------------------------|--------------------------------|
  | |
  e--------------------------------|--------------------------------|
  B-6---6-6-------------6---6-6---6|-6------------------------------|
  G--------------------------------|-----7-7-7---7-7-7---7-7-7---7--|
  D--------------------------------|--------------------------------|
  A--------------------------------|--------------------------------|
  E--------------------------------|--------------------------------|
  | |
  G--------------------------------|--------------------------------|
  D--------------------------------|--------------------------------|
  A--------------------------------|--------------------------------|
  E-2-------2-2---2-2-------2-2---2|-2---1-1-1---1-1-1---1-1-3---5--|

  Bb Ab
  e-------------------------------11|-13------------------13--1314--16|
  B-11------------------11--111314--|---------------------------------|
  G---------10----------------------|---------------------------------|
  D---------------------------------|---------------------------------|
  A---------------------------------|---------------------------------|
  E---------------------------------|---------------------------------|
  | |
  e---------------------------------|-------------9-1113--13----------|
  B-----------------------------6-8-|-9-----111113-------------9-11-13|
  G-7-------7-7---5-7---7---7-8-----|---------------------------------|
  D---------------------------------|---------------------------------|
  A---------------------------------|---------------------------------|
  E---------------------------------|---------------------------------|
  | |
  G---------------------------------|---------------------------------|
  D---------------------------------|---------------------------------|
  A---------------------------------|---------------------------------|
  E-6-------6-6---4-6-------6-6---6-|-4-------4-4---2-4-------4-4---4-|

  F# C#
  e-18------------------18--1816--14|-16----1413--------------13------|
  B---------------------------------|---------------------------------|
  G---------------------------------|---------------------------------|
  D---------------------------------|---------------------------------|
  A---------------------------------|---------------------------------|
  E---------------------------------|---------------------------------|
  | |
  e---------------------------------|---------------------------------|
  B-14----------111314--14--1413--11|-14------------------------------|
  G-------111113--------------------|-------131313--1113----131311--13|
  D---------------------------------|---------------------------------|
  A---------------------------------|---------------------------------|
  E---------------------------------|---------------------------------|
  | |
  G---------------------------------|---------------------------------|
  D---------------------------------|---------------------------------|
  A---------------------------------|-4-------4-4---2-4-------4-4---4-|
  E-2-------2-2---1-2-------2-2---2-|---------------------------------|

  B Bbm
  e-11--111314--------------13--11--|-9---9-1113--------------11--9---|
  B---------------------------------|---------------------------------|
  G---------------------------------|---------------------------------|
  D---------------------------------|---------------------------------|
  A---------------------------------|---------------------------------|
  E---------------------------------|---------------------------------|
  | |
  e---------------------------------|---------------------------------|
  B-----------------11--------------|-----------------9-------7---6---|
  G-11--111011--1113---------13--11-|-10--108-10--1011----------------|
  D---------------------------------|---------------------------------|
  A---------------------------------|---------------------------------|
  E---------------------------------|---------------------------------|
  | |
  G---------------------------------|---------------------------------|
  D---------------------------------|---------------------------------|
  A-2-------2-2---1-2-------2-2---2-|---------------------------------|
  E---------------------------------|-6-------6-6---4-6-------6-6---6-|

  C F
  e-8---8-1012--------------15------|-13------------------------------|
  B---------------------------------|---------------------------------|
  G---------------------------------|-----101010--101010--101010--10--|
  D---------------------------------|---------------------------------|
  A---------------------------------|---------------------------------|
  E---------------------------------|---------------------------------|
  | |
  e-----------------------5-6---8---|-5-------------------------------|
  B-5-------5-----6-8---8-----------|---------------------------------|
  G---------------------------------|---------------------------------|
  D---------------------------------|-----7-7-7---7-7-7---7-7-7---7---|
  A---------------------------------|---------------------------------|
  E---------------------------------|---------------------------------|
  | |
  G---------------------------------|---------------------------------|
  D---------------------------------|---------------------------------|
  A-3-------3-3---1-3-------3-3---3-|---------------------------------|
  E---------------------------------|-1-------1-------1-------3---5---|

  Bb Ab
  e-------------------------------11|-13------------------13--1314--16|
  B-11------------------11--111314--|---------------------------------|
  G---------10----------------------|---------------------------------|
  D---------------------------------|---------------------------------|
  A---------------------------------|---------------------------------|
  E---------------------------------|---------------------------------|
  | |
  e---------------------------------|-------------9-1113--13----------|
  B-----------------------------6-8-|-9-----111113-------------9-11-13|
  G-7-------7-7---5-7---7---7-8-----|---------------------------------|
  D---------------------------------|---------------------------------|
  A---------------------------------|---------------------------------|
  E---------------------------------|---------------------------------|
  | |
  G---------------------------------|---------------------------------|
  D---------------------------------|---------------------------------|
  A---------------------------------|---------------------------------|
  E-6-------6-6---4-6-------6-6---6-|-4-------4-4---2-4-------4-4---4-|

  F# F
  e-18----------------------21------|-20------17----------------------|
  B---------------------------------|-------------------------18------|
  G---------------------------------|---------------------------------|
  D---------------------------------|---------------------------------|
  A---------------------------------|---------------------------------|
  E---------------------------------|---------------------------------|
  | |
  e-------------------------12------|-11------------------------------|
  B-14------------------------------|---------13--------------10------|
  G---------------------------------|---------------------------------|
  D---------------------------------|---------------------------------|
  A---------------------------------|---------------------------------|
  E---------------------------------|---------------------------------|
  | |
  G---------------------------------|---------------------------------|
  D---------------------------------|---------------------------------|
  A---------------------------------|---------------------------------|
  E-2-------2-2---1-2-------2-2---2-|-1-------1-1---1-1-------1-1---1-|

  Edim F
  e-------------------------18------|-17------------------------------|
  B-19------------------------------|---------18--------------18------|
  G---------------------------------|---------------------------------|
  D---------------------------------|---------------------------------|
  A---------------------------------|---------------------------------|
  E---------------------------------|---------------------------------|
  | |
  e---------------------------------|---------------------------------|
  B-12----------------------14------|-13------10--------------10------|
  G---------------------------------|---------------------------------|
  D---------------------------------|---------------------------------|
  A---------------------------------|---------------------------------|
  E---------------------------------|---------------------------------|
  | |
  G---------------6-9---------------|-10------------------------------|
  D-----------8---------------------|---------------------------------|
  A---------7-----------------------|---------------------------------|
  E-0-6---9-------------------------|---------1-1---1-1---------------|

  Edim F
  e-------------------------18------|-17------------------------------|
  B-19------------------------------|---------18--------------15------|
  G---------------------------------|---------------------------------|
  D---------------------------------|---------------------------------|
  A---------------------------------|---------------------------------|
  E---------------------------------|---------------------------------|
  | |
  e---------------------------------|---------------------------------|
  B-12----------------------14------|-13------10--------------10------|
  G---------------------------------|---------------------------------|
  D---------------------------------|---------------------------------|
  A---------------------------------|---------------------------------|
  E---------------------------------|---------------------------------|
  | |
  G---------------6-9---------------|-10------------------------------|
  D-----------8---------------------|---------------------------------|
  A---------7-----------------------|---------------------------------|
  E-0-6---9-------------------------|---------1-1---1-1---------------|

  B Bbm
  e-------------------------14------|-13------------------------------|
  B-16------------------------------|---------14--------------11------|
  G---------------------------------|---------------------------------|
  D---------------------------------|---------------------------------|
  A---------------------------------|---------------------------------|
  E---------------------------------|---------------------------------|
  | |
  e---------------------------------|---------------------------------|
  B-------------------------12------|-11------------------------------|
  G-11------------------------------|---------10--------------6-------|
  D---------------------------------|---------------------------------|
  A---------------------------------|---------------------------------|
  E---------------------------------|---------------------------------|
  | |
  G---------------------------------|---------------------------------|
  D---------------------------------|---------------------------------|
  A-2-------2-2---1-2-------2-2---2-|---------------------------------|
  E---------------------------------|-6-------6-6---4-6-------6-6---6-|

  C F
  e-8---8-1012--------------15------|-13------------------------------|
  B---------------------------------|---------------------------------|
  G---------------------------------|-----101010--101010--101010--10--|
  D---------------------------------|---------------------------------|
  A---------------------------------|---------------------------------|
  E---------------------------------|---------------------------------|
  | |
  e-----------------------5-6---8---|-5-------------------------------|
  B-5-------5-----6-8---8-----------|---------------------------------|
  G---------------------------------|---------------------------------|
  D---------------------------------|-----7-7-7---7-7-7---7-7-7---7---|
  A---------------------------------|---------------------------------|
  E---------------------------------|---------------------------------|
  | |
  G---------------------------------|---------------------------------|
  D---------------------------------|---------------------------------|
  A-3-------3-3---1-3-------3-3---3-|---------------------------------|
  E---------------------------------|-1-------1-------1-------3---5---|
Comments