Misc Video Games - Ninja Gaiden Life Or Death Duel Chords & Tabs

 

Ninja Gaiden Life Or Death Duel Chords & Tabs

Misc Video Games Chords & Tabs

Version: 1 Type: Tab 1 rating
1 star 2 stars 3 stars 4 stars 5 stars
comments

Ninja Gaiden Life Or Death Duel Tab

   
Ninja Gaiden - Life or Death Duel
Tabbed by springwaffle

Melody:

         G#        E           F#                   B          C#
e---7--6-------------------9-7-7--6-6---------6-----------------------
b--------------7---7h9---9-------------9-9--7---9-7-------7-----------
g-8------8---8----8---------------------------------8---8----9-8--6-6-
d---------------------------------------------------------------------
a---------------------------------------------------------------------
e---------------------------------------------------------------------
[ Tab from: http://www.guitartabs.cc/tabs/m/misc_video_games/ninja_gaiden_life_or_death_duel_tab.html ]
         G#              D#                     G#
e--------------------6-7-6--------------------6---- r
b---------------9--9--------7-7----7------7-----9-- e
g-6-9--8------8------------------8---8--8---8------ p
d--------9--9-------------------------------------- e
a-------------------------------------------------- a
e-------------------------------------------------- t

Rhythm:

  G#    x2  E     x2  F#    x2  B     x2  C#    x2  G#    x2  D#    x2  G#    x2
e---------|---------|---------|---------|---------|---------|---------|---------| r
b---------|---------|---------|---------|---------|---------|---------|---------| e
g---------|---------|---------|-----4---|-----6---|---------|-----8---|---------| p
d-----6---|-----2---|-----4---|---4---4-|---6---6-|-----6---|---8---8-|-----6---| e
a---6---6-|---2---2-|---4---4-|-2-------|-4-------|---6---6-|-6-------|---6---6-| a
e-4-------|-0-------|-2-------|---------|---------|-4-------|---------|-4-------| t

Each of those are eighth notes. 4/4 time
Comments