Misc Video Games - Mike Tysons Punch Out Theme Chords & Tabs

 

Mike Tysons Punch Out Theme Chords & Tabs

Misc Video Games Chords & Tabs

Version: 1 Type: Tab 0 ratings
1 star 2 stars 3 stars 4 stars 5 stars
comments

Mike Tysons Punch Out Theme Tab

Mike Tyson’s Punch Out

|------------------------------------------------------------------------------------------------|
|------------------------------------------------------------------------------------------------|
|------------------------------------------------------------------------------------------------|
|--7—7-7-7-5----3--3-3-3-5---5-7---------7--9-10-10-9-7—5/7-5-5/7-5--10-9-7--9-10-10-------------|
|--7—7-7-7-5----3--3-3-3-5---5-7-----------------------------------------------------------------|
|------------------------------------------------------------------------------------------------|
[ Tab from: http://www.guitartabs.cc/tabs/m/misc_video_games/mike_tysons_punch_out_theme_tab.html ]
|--------------------------------------------------------15----------------------------13--------|
|--------------------------------------------10-12-13------------10-12-10-12-10-----------10-10--|
|--------7/9-7--7/9-7--7-9-7-9--------9-------------12---12----------------------10---10---------|
|-9-10----------------------------7--10----------------------------------------------------------|
|------------------------------------------------------------------------------------------------|
|------------------------------------------------------------------------------------------------|

|-------------12---------------------------------------------------------------------------------|
|-10-12-10---------------------------------------------------------------------------------------|
|--------------9---------------------------------------------------------------------------------|
|------------------------------------------------------------------------------------------------|
|------------------------------------------------------------------------------------------------|
|------------------------------------------------------------------------------------------------|


|------------------------------------------------------------------------------------------------|
|------------------------------------------------------------------------------------------------|
|-9p7---9p7----10p7---10-7---9p7---9p7---7p5---7p5-----------------------------------------------|
|------7-----7---------7--------------7------7------5------5-------------------------------------|
|------------------------------------------------------------------------------------------------|
|------------------------------------------------------------------------------------------------|

Comments