Misc Video Games - Lemmings A Job For Blockers And Bombers Chords & Tabs

 

Lemmings A Job For Blockers And Bombers Chords & Tabs

Misc Video Games Chords & Tabs

Version: 1 Type: Tab 1 rating
1 star 2 stars 3 stars 4 stars 5 stars
comments

Lemmings A Job For Blockers And Bombers Tab

Lemmings - A Job For Blockers and Bombers
Tabbed by: SpRiNgWaFfLe [springwaffle@comcast.net]
[ Tab from: http://www.guitartabs.cc/tabs/m/misc_video_games/lemmings_a_job_for_blockers_and_bombers_tab.html ]
e----------0-4-7-------------------0-4-7----------
b-2--------------3-2-0----2-----------------------
g---2------------------2----2---------------2---2-
d-----4-2---------------------4-2---------2---2--- x2
a-------------------------------------------0---0-
e-----------------------------------------0---0---
                                              _______________  ________
                                             | 1              | 2
e|--------------0-0--0-2--------------------|-5-4-2-0--------|-0-------
b|*-----0-3-2-0----------2-3-0-0--0-3-2-0---|---------3-2-0-*|---0-2---
g|--2-2-----------------------------------2-|----------------|-------2- ***
d|------------------------------------------|----------------|---------
a|*-----------------------------------------|---------------*|---------
e|------------------------------------------|----------------|---------

e-----------------14-17-14-14--------2-----2-0------9-7-9-7-9-7-9-7-
b-0--0--0------15-------------17-17----0-0--------------------------
g---------2-2----------------------------------2-2------------------
d-------------------------------------------------------------------
a-------------------------------------------------------------------
e-------------------------------------------------------------------

e-----------------2-5-2-2-0-0--2-----2-0----------------
b-0--0-2-0------3----------------0-0----------2-0-2-0---
g----------2-2---------------------------2-2----------2-
d-------------------------------------------------------
a-------------------------------------------------------
e-------------------------------------------------------

play the first two parts again, end here ***
I'm sure playing the song you'll have heard it before
If not go here to listen to it:
http://www.vgmusic.com/music/console/nintendo/nes/lemcan.mid
Comments