Misc Video Games - Legend Of Zelda Theme Chords & Tabs

 

Misc Video Games Chords & Tabs

Version: 1 Type: Tab 1 rating
1 star 2 stars 3 stars 4 stars 5 stars
comments

Legend Of Zelda Theme Tab

   
Symbols used:
 h = hammer-on
 / = slide up
  = slide down

Standard tuning: (low to high) EADGBe


Intro:
======

--------------------------------------------------------------------
--------------------------------------------------------------------
-15-----------15-15-15--15-15---13-15-------15-15-15--15-15---13-15-
--------------------------------------------------------------------
--------------------------------------------------------------------
--------------------------------------------------------------------


---------------------------------------------------------------------
---------------------------------------------------------------------
-15-15-15--15-15---------------------------------------------15------
-----------------15-15-15--15-15-15--15-15-15--15-15-15--15-------15-
---------------------------------------------------------------------
---------------------------------------------------------------------

Riff A:
========

----------------13------------------16-18---------18--18-18--16----16---------
-------13-15-16------------18-18-19-----------------------------19------19-18-
-15-15------------------------------------------------------------------------
------------------------------------------------------------------------------
------------------------------------------------------------------------------
------------------------------------------------------------------------------

----------------------------------------------------------------------------
-18----16--16h18h19--------18--16--14--14h16h18--------16--14--13--13h15h17-
----------------------------------------------------------------------------
----------------------------------------------------------------------------
----------------------------------------------------------------------------
----------------------------------------------------------------------------

-15----13-------------------------------------------
----------------------------------------------------
---------------------------------------------15-----
-----------15-15-15--15-15-15--15-15-15--15------15-
----------------------------------------------------
----------------------------------------------------

Riff B:
=======

----------------13------------------16-18-----------21----20----17-------
-------13-15-16------------18-18-19--------------------------------------
-15-15-------------------------------------------------------------------
-------------------------------------------------------------------------
-------------------------------------------------------------------------
-------------------------------------------------------------------------

|--------------------18----17-----------------|
|-18----19-----------------------18-----------|
|---------------------------------------------|
|---------------------------------------------|
|---------------------------------------------|
|---------------------------------------------| x2

--------------------14----13-------------------------------------------
-15----16-----------------------14-----------------13--13h15h17--------
---------------------------------------------15------------------------
-----------------------------------------------------------------------
-----------------------------------------------------------------------
-----------------------------------------------------------------------

-15----13-------------------------------------------
----------------------------------------------------
---------------------------------------------15-----
-----------15-15-15--15-15-15--15-15-15--15------15-
----------------------------------------------------
----------------------------------------------------

...and back to Riff A.



ONE OCTAVE LOWER... FOR TWO GUITARS:
====================================

G1 --------------------------------------------------------
U  --------------------------------------------------------
I  --3----3--3-3-3-3--1-3----3-3-3-3--3--1-3----3-3-3-3-3--
T  --------------------------------------------------------
A  --------------------------------------------------------
R  --------------------------------------------------------

G2 --------------------------------------------------------
U  --------------------------------------------------------
I  --------------------------------------------------------
T  --------------------------------------------------------
A  --5----5--5-5-5-3--3-3------3-3-3--4--4-4----4-4-4-4-4--
R  --------------------------------------------------------

Play the intro once. When you get to the end of the song, come back here.

G1 -----------------------------------------------1--------------
U  -----------------------------------------1-3-4----------------
I  --------------------------3----------3-3----------------------
T  --3-3-3--3-3-3--3-3-3--3-----3--------------------------------
A  --------------------------------------------------------------
R  --------------------------------------------------------------
[ Tab from: http://www.guitartabs.cc/tabs/m/misc_video_games/legend_of_zelda_theme_tab.html ]
G2 -----------------------------------------------------------1--
U  -----------------------------------------------------1-3-4----
I  -------------------------------------------------3-3----------
T  ---------------------------------------------0-1--------------
A  -----------------------------------------2-3------------------
R  --5-5-5--5-5-5--5-5-5--5--5--5-5-3-5-5-5----------------------


G1 --1--1-2-4-7-----------7-7-7-4-2-4-2-1------------
U  --------------------------------------------------
I  --------------------------------------------------
T  --------------------------------------------------
A  --------------------------------------------------
R  --------------------------------------------------

G2 --1-----------------------------------------------
U  ---------1-2--------1-3-3--3-1---2----------------
I  -----2-3----------3------------3---1-1-1--1-1--1--
T  --------------4-4------------------------4--------
A  --------------------------------------------------
R  --------------------------------------------------


G1 --1---------1-2----------1-----------1-------------------0----------1-----
U  --------4-4-----------------4--2-2-4---------4--3--1-1-3------------------
I  --------------------------------------------------------------------------
T  --------------------------------------------------------------------------
A  --------------------------------------------------------------------------
R  --------------------------------------------------------------------------

G2 --------------------------------------------------------------------------
U  -----------------------------------------------------------------------2--
I  --1---1-------------------------------------------------------------------
T  ----4---4---43/4-64/8--6--4--3-32/3-3/4/6--5--3--2----2--3-5-5/7-8-----
A  --------------------------------------------------------------------------
R  --------------------------------------------------------------------------


G1 --1----------------------------------------------1--------------
U  -------------------------------------------1-3-4----------------
I  ----------------------------3----------3-3----------------------
T  ----3-3-3--3-3-3--3-3-3--3-----3--------------------------------
A  ----------------------------------------------------------------
R  ----------------------------------------------------------------

G2 -------------------------------------------------------------1--
U  -------------------------------------------------------1-3-4----
I  --2------------------------------------------------3-3----------
T  -----------------------------------------------0-1--------------
A  -------------------------------------------2-3------------------
R  ----5-5-5--5-5-5--5-5-5--5--5--5-5-3-5-5-5----------------------


G1 --1--1-2-4-7------------9----8----5--------1----2------------7----5----1--
U  --------------------------------------------------------------------------
I  --------------------------------------------------------------------------
T  --------------------------------------------------------------------------
A  --------------------------------------------------------------------------
R  --------------------------------------------------------------------------

G2 --1---------------------0-------------------------------------------------
U  ---------1-2-----------------4----1-------------0------------2----1-------
I  -----2-3-----------------------------------2---------------------------2--
T  --------------------------------------------------------------------------
A  --------------------------------------------------------------------------
R  --------------------------------------------------------------------------


G1 ------1----2------------7----5----1--------------------------2----1-------
U  -------------------------------------------3----4----------------------2--
I  --------------------------------------------------------------------------
T  --------------------------------------------------------------------------
A  --------------------------------------------------------------------------
R  --------------------------------------------------------------------------

G2 --------------------------------------------------------------------------
U  -----------0------------2----1-------------------------------0------------
I  ------2---------------------------2--------1----------------------3-------
T  ------------------------------------------------4----------------------3--
A  --------------------------------------------------------------------------
R  --------------------------------------------------------------------------


G1 -----------------0----------1-----
U  -----------1-1-3------------------
I  ------3---------------------------
T  ----------------------------------
A  ----------------------------------
R  ----------------------------------

G2 ----------------------------------
U  -------------------------------2--
I  ----------------------------------
T  ------0----2-----2--3-5-5/7-8-----
A  ----------------------------------
R  ----------------------------------

Comments