Misc Video Games - Legend Of Zelda Overworld Complete Chords & Tabs

 

Legend Of Zelda Overworld Complete Chords & Tabs

Misc Video Games Chords & Tabs

Version: 1 Type: Tab 1 rating
1 star 2 stars 3 stars 4 stars 5 stars
comments

Legend Of Zelda Overworld Complete Tab

The Legend of Zelda (Overworld) - Koji Kondo
Tabbed by SpRiNgWaFfLe [springwaffle@comcast.net]

Melody

e----------------------------------------------------------------
b----------------------------------------------------------------
g-3----3-3-3-3-3-1-3--3-3-3-3-3-1-3--3-3-3-3-3-------------------
d----------------------------------------------3-3-3-3-3-3-3-3-3-
a----------------------------------------------------------------
e----------------------------------------------------------------
    *
e-------------------1--------4-6--6-6-6-4---4------1-----1-2-
b-------------1h3h4----6-6-7--------------7---6-7----4-4-----
g---3-----3-3------------------------------------------------
d-3---3------------------------------------------------------
a------------------------------------------------------------
e------------------------------------------------------------

e-1---------1------------0--3-1------------------------------------1--------4-6--
b---4-2-2-4----4-2-1-1-3-------------------------------------1h3h4----6-6-7------
g---------------------------------------------------3----3-3---------------------
d-------------------------------3-3-3-3-3-3-3-3-3-3---3--------------------------
a--------------------------------------------------------------------------------
e--------------------------------------------------------------------------------

e-9-8-5--------6-5---------6-5---------2-1------------0--3-1---------------------
b--------6-7-------6--6-7------6--3-4------2----1-1-3----------------------------
g---------------------------------------------3----------------------------------
d------------------------------------------------------------3-3-3-3-3-3-3-3-3-3-
a--------------------------------------------------------------------------------
e--------------------------------------------------------------------------------

Go back to the * and loop as many times as you like.

Bass line
[ Tab from: http://www.guitartabs.cc/tabs/m/misc_video_games/legend_of_zelda_overworld_complete_tab.html ]
e--------------------------------------------------------------------
b--------------------------------------------------------------------
g--------------------------------------------------------------------
d--------------------------------------------------------------------
a-1--1-1-1-1--1-1-1------------------------------------------------0-
e-------------------4--4-4-4-4--4-4-4-2--2-2-2-2--2-2-2-2--1--1--3---
                                                  __________________________
    *                                            | 1
e|----------------------------------------------|----------------------------------
b|*---------------------------------------------|----------------------------------
g|----------------------------------------------|----------------------------------
d|----------------------------------------------|----------------------------------
a|*-1--1-1---1--1-------------------------------|-4--4-4-2-4--4--2--2-2-1-2--2-2-2-
e|---------4-------4--4-4-2-4--4--2--2-2-0-2--2-|----------------------------------

e---------------------------------------------------|
b--------------------------------------------------*|
g---------------------------------------------------|
d---------------------------------------------------|
a-1--1-1---1--1-1-1-3--3-3-1-3--3-3-3------------0-*|
e--------4----------------------------1--1--1--3----|
  ______________________
 | 2
e----------------------------0---1------------------------0---1----------
b--------------------------2----------------------------2----------------
g------------------------3----------------------------3------------------
d----------------------2----------------------------2--------------------
a------------------1-4--------------------------1-4----------------------
e-1--1-1-0-1--1--0------------------1-1-1-1---0------------------1-1-1-1-
         ^
e---------------------------------------------------------------------
b---------------------------------------------------------------------
g--------------------------------------------------------------------- 
d---------------------------------------------------------------------
a-2--2-2-1-2--2-2-2--1--1-1---1--1-1-1-3--3-3-3-3--3-3-3------------0-
e---------------------------4----------------------------1--1--1--3---

^ = use whammy bar to bend down a half step

Go back to the * and loop as many times as you like.
Comments