Misc Video Games - Konami Mgs Theme Chords & Tabs

 

Konami Mgs Theme Chords & Tabs

Misc Video Games Chords & Tabs

Version: 1 Type: Tab 0 ratings
1 star 2 stars 3 stars 4 stars 5 stars
comments

Konami Mgs Theme Tab

A great score for a great game.You can add you own bends or notes as you see fit, It can all be moved down the neck and through the strings, Here you go;
~~~~~~~~~~~~~~~~~~~~~~~~~~~~~~~~~~~~~~~~~~~~~~~~~~~~~~~~~~~~~~~~~~~~~~~~~~~~~~~~~~~~~~~~

                              Metal gear solid theme
                           ~~~~~~~~~~~~~~~~~~~~~~~~~~~~
                                some japanese guy


e|----------------|---------------|---------------|----------|
b|----------------|---------------|---------------|----------|
g|----------------|---------------|---------------|----------|
d|----------------|---------------|---------------|----------|
a|----------------|-5--5--6--5--3-|---------------|----------|
E|--5--5--6--5--3-|---------------|-5--5--6--5--3-|-1--1--3--|
[ Tab from: http://www.guitartabs.cc/tabs/m/misc_video_games/konami_mgs_theme_tab.html ]
e|------------|-----------------|------------|-------------------|
b|------------|-----------------|------------|-------------------|
g|------------|-----------------|------------|-------------------|
d|--9--7------|--7--9--5--9--7--|------7--9--|--12--12--9--5--7--|
a|--------10--|-----------------|--10--------|-------------------|
E|------------|-----------------|------------|-------------------|

e|--------------|--------------|----------|--------------|------------------|
b|--------------|--------------|----------|--------------|------------------|
g|--------------|--------------|----------|--------------|------------------|
d|-10-8-10--13--|--12--13--15--|--13--10--|--------------|------------------|
a|--------------|--------------|----------|--10--12--13--|--12--13--15--13--|
E|--------------|--------------|----------|--------------|------------------|

e|-------------|--------------|---------|
b|-------------|--------------|---------|
g|-------------|--------------|---------|
d|-------------|--------------|---------|
a|--8--10--12--|--13--12--10--|--8--10--|
E|-------------|--------------|---------|

Comments