Misc Video Games - Final Fantasy 7 Prelude Ost Chords & Tabs

 

Final Fantasy 7 Prelude Ost Chords & Tabs

Misc Video Games Chords & Tabs

Version: 1 Type: Tab 0 ratings
1 star 2 stars 3 stars 4 stars 5 stars
comments

Final Fantasy 7 Prelude Ost Tab

   
Final Fantasy 7 Prelude (From Book)

I Garuntee 100% As I Have The Official Music Book To Go With The 4cd
Final Fantasy 7 OST. Sorry About The Complexicity But The Song Is 5 Octaves
And Is Originally Played On Keyboard. If It Is Innaccurate It's Becaus I Can't
Read Notation Well :).

Tune Guitar (Low To High); Ab,D,G,C,E,A (Or Alternatly Get A Bass Player To Do The Low Bits)

Key Of C , 82bpm 

                                    Pinch Harmonic    
    Cadd9                                \/
a||-----------------3-5-7-10-15-17-19-22-15-22-19-17-15-10-7-5-3---------------|
E||-------------0-3----------------------------------------------3-0-----------|
C||---------0-2------------------------------------------------------2-0-------|
G||-------0--------------------------------------------------------------0-----|
D||---0-2------------------------------------------------------------------2-0-|
Ab|-4--------------------------------------------------------------------------|
    C D E G
                                   Pinch Harmonic (Or 24th Fret)
    Amadd9                              \/
a||-----------------0-2-3-7-12-14-15-19-12-19-15-14-12-7-3-2-0---------------|
E||---------------0--------------------------------------------0-------------|
C||-------------0------------------------------------------------0-----------|
G||---------2-4----------------------------------------------------4-2-------|
D||-------2------------------------------------------------------------2-----|
Ab|-1-3-4----------------------------------------------------------------4-3-|
    A B C E 
[ Tab from: http://www.guitartabs.cc/tabs/m/misc_video_games/final_fantasy_7_prelude_ost_tab.html ]
                                    Pinch Harmonic    
    Cadd9                                \/
a||-----------------3-5-7-10-15-17-19-22-15-22-19-17-15-10-7-5-3---------------|
E||-------------0-3----------------------------------------------3-0-----------|
C||---------0-2------------------------------------------------------2-0-------|
G||-------0--------------------------------------------------------------0-----|
D||---0-2------------------------------------------------------------------2-0-|
Ab|-4--------------------------------------------------------------------------|
    C D E G
                                   Pinch Harmonic (Or 24th Fret)
    Amadd9                              \/
a||-----------------0-2-3-7-12-14-15-19-12-19-15-14-12-7-3-2-0---------------|
E||---------------0--------------------------------------------0-------------|
C||-------------0------------------------------------------------0-----------|
G||---------2-4----------------------------------------------------4-2-------|
D||-------2------------------------------------------------------------2-----|
Ab|-1-3-4----------------------------------------------------------------4-3-|
    A B C E 

                                    Pinch Harmonic (Or 24th Fret)
    Fadd9/A                              \/
a||-----------------0-3-8-10-12-15-20-22-12-22-20-15-12-10-8-3-0---------------|
E||-------------1-3----------------------------------------------3-1-----------|
C||-----------0------------------------------------------------------0---------|
G||-------0-2----------------------------------------------------------2-0-----|
D||-----3------------------------------------------------------------------3---|
Ab|-1-4----------------------------------------------------------------------4-|
    A C F G

                                   Pinch Harmonics
    Gadd9/B                            \/ \/ \/
a||---------------0-2-5-10-12-14-17-22-12-14-12-22-17-14-12-10-5-2-0-------------|
E||-------------3----------------------------------------------------3-----------|
C||-----------2--------------------------------------------------------2---------|
G||-----0-2-4------------------------------------------------------------4-2-0---|
D||---0------------------------------------------------------------------------0-|
Ab|-3----------------------------------------------------------------------------|
    B D G A

                                    Pinch Harmonic
    Abmaj7                               \/
a||-------------------3-6-10-11-14-18-22-11-22-18-14-11-10-6-3-----------------|
E||---------------3-4------------------------------------------4-3-------------|
C||-----------0-3--------------------------------------------------3-0---------|
G||-------0-1----------------------------------------------------------1-0-----|
D||-----1------------------------------------------------------------------1---|
Ab|-0-4----------------------------------------------------------------------4-|
    G#C D#G

                                 Pinch Harmonics
    Bbmaj7                            \/ \/ \/
a||---------------0-1-5-8-12-13-17-20-12-13-12-20-17-13-12-8-5-1-0-------------|
E||-------------1--------------------------------------------------1-----------|
C||-----------2------------------------------------------------------2---------|
G||-------2-3----------------------------------------------------------3-2-----|
D||---0-3------------------------------------------------------------------3-0-|
Ab|-2--------------------------------------------------------------------------|
    BbD F A

You Should Be Able To Figure The Rest Out
Thanks Al
nirvanaparker@yahoo.com


    




Comments