Misc Video Games - Doom E2m9 E3m Chords & Tabs

 

Doom E2m9 E3m Chords & Tabs

Misc Video Games Chords & Tabs

Version: 1 Type: Tab 1 rating
1 star 2 stars 3 stars 4 stars 5 stars
comments

Doom E2m9 E3m Tab

Doom - e2m9, e3m1
Tabbed by springwaffle

e--------------------------------------------
b--------------------------------------------
g--------------------------------------------
d--------------------------------------2-2-2- x2
a---2-2-3--0-2-----0------2-2-3--0-2---------
e-0------------3-3----3-0------------3-------

e--------------------------------------------
b--------------------------------------------
g--------------------------------------2-2-2-
d---2-2-3--0-2-----0------2-2-3--0-2--------- x2
a-0------------3-3----3-0------------3-------
e--------------------------------------------
[ Tab from: http://www.guitartabs.cc/tabs/m/misc_video_games/doom_e2m9_e3m_tab.html ]
e--------------------------------------------
b--------------------------------------------
g--------------------------------------------
d--------------------------------------2-2-2- x2
a---2-2-3--0-2-----0------2-2-3--0-2---------
e-0------------3-3----3-0------------3-------

e--------------------------------------------
b--------------------------------------------
g--------------------------------------2-2-2-
d---4-4-5--2-4-0-0-2------2-2-3--0-2---------
a-2-------------------3-0------------3-------
e--------------------------------------------

e--------------------------------------------
b--------------------------------------------
g--------------------------------------------
d--------------------------------------2-2-2-
a---2-2-3--0-2-----0------2-2-3--0-----------
e-0------------3-3----3-0----------7\--------
Comments