Misc Video Games - Doom E1m9 E3m Chords & Tabs

 

Doom E1m9 E3m Chords & Tabs

Misc Video Games Chords & Tabs

Version: 1 Type: Tab 1 rating
1 star 2 stars 3 stars 4 stars 5 stars
comments

Doom E1m9 E3m Tab

Doom - e1m9, e3m9
Tabbed by springwaffle
                        ___________  ________
  Pattern 1            | 1          | 2
e|--------------------|------------|---------| 
b|*-------------------|-----------*|---------|
g|--------------------|------------|---------|
d|--1-------------1---|-1-2-1------|-1-2-----|
a|*---4--4-2-4--4---4-|-------4-2-*|------2--|
e|--------------------|------------|---------|
                        ___________  ________
  Pattern 2            | 1          | 2
e|--------------------|------------|---------|
b|*-------------------|-----------*|---------|
g|--1-------------1---|-1-2-1------|-1-2-----|
d|----4--4-2-4--4---4-|-------4-2--|------2--|
a|*-------------------|-----------*|---------|
e|--------------------|------------|---------|
[ Tab from: http://www.guitartabs.cc/tabs/m/misc_video_games/doom_e1m9_e3m_tab.html ]
  Pattern 3
e--------------------------|--------------------------|
b--------------------------|--------------------------|
g--------------------------|--------------------------|
d-----------------1--2-1---|-----------------1--2-----|
a---0--2-0----2-4--------4-|---0--2-0----2-4------4-2-|
e-4--------4---------------|-4--------4---------------|
 
  Pattern 3 contd.
e|----------------------------|
b|*--------------------------*|
g|----------------------------|
d|------------------1--2---2--|
a|*---0--2-0----2-4------4---*|
e|--4--------4----------------|

  Pattern 4
e-----------------------------------------------------------
b-----------------------------------------------------------
g-----------------------------------------------------------
d-----1-2-1-1-----------------------1-2-4-2-1---------------
a-4-4---------4-2-----0-2-0-----4-4-----------4-----0-2-0---
e-----------------4-4--------4------------------4-4-------4-

  Pattern 5
e----------------------------------------------------------
b----------------------------------------------------------
g---1-0-1-2-1---1----------------1-0-1---1---1-------------
d-------------2-----1-0-1-2------------2---1-----1-0-1-2---
a-4-------------------------0--4-------------------------0-
e-----------------4----------------------------4-----------

P.1 x4
P.2 x2
P.1 x2
P.3
P.4
P.5
repeat
Comments