Misc Video Games - Doom E1m8 E3m Chords & Tabs

 

Doom E1m8 E3m Chords & Tabs

Misc Video Games Chords & Tabs

Version: 1 Type: Tab 1 rating
1 star 2 stars 3 stars 4 stars 5 stars
comments

Doom E1m8 E3m Tab

Doom - e1m8, e3m4
Tabbed by springwaffle

e|-----------------|---------8------|---------8-11-8-- r
b|*-8b9--8-6---8--*|-8b10--9---9\8--|-8b10--9--------- e
g|-----------8-----|----------------|----------------- p
d|-----------------|----------------|----------------- e
a|*---------------*|----------------|----------------- a
e|-----------------|----------------|----------------- t

e|-----------------|---------------|---------------
b|*---------------*|--------1------|--------1-4-1--
g|--0^1--0-----0---|-0^2--1---1\0--|-0^2--1--------
d|---------3-1-----|---------------|---------------
a|*---------------*|---------------|---------------
e|-----------------|---------------|---------------
[ Tab from: http://www.guitartabs.cc/tabs/m/misc_video_games/doom_e1m8_e3m_tab.html ]
e-------------------|----------------|-------------------------
b-5b6--5-4-3---4----|-5b6--5-4-3---4-|-5b6--5-4-3---4--3h4p3---
g------------5----5-|------------5---|------------5---------5--
d-------------------|----------------|-------------------------
a-------------------|----------------|-------------------------
e-------------------|----------------|-------------------------

e-----------------------
b---------------0--1----
g-0-0^1--0-0^1----------
d-----------------------
a-----------------------
e-----------------------

b = normal bend
^ = bend whammy bar towards YOU instead of towards the fretboard
to bend the pitch up to designated note

Corrections/comments/etc. can be sent to: springwaffle@comcast.net
Comments