Misc Video Games - Dkc Jungle Hijinx Chords & Tabs

 

Dkc Jungle Hijinx Chords & Tabs

Misc Video Games Chords & Tabs

Version: 1 Type: Tab 1 rating
1 star 2 stars 3 stars 4 stars 5 stars
comments

Dkc Jungle Hijinx Tab

   
Donkey Kong Country - Jungle Hijinx (Island Swing)
Tabbed by springwaffle

Bass: dropped D tuning, low to high [d a d g]
                           *
g--------------------------------------------------------------------
d--------------------------------------------------------------------
a-0---0----0---0------0-1--0---0----0---0------------------------0-1-
e-------------------5------------------------5---5----5---5----5-----

g|--------------------------|--------------------------|
d|*------------------------*|*----0-------------------*|
a|*-0-----0----------------*|*-------3-----2--------2-*|
e|-----5-----2--0--5--2--0--|--5--------5-----5--3-----|

    S
g|-----------------------------------------------------|
d|*---------------------------------------------------*|
a|*-0--0---------------------0--0------------3-2--0---*|
e|--------2--2--3--3-5--3-5--------2--2--3-3--------5--|

g|--------------------------------------------------
d|*-------------------------------------------------
a|*-0--0--------0-0----------0--0--3--3--2-----0--2-
e|--------2--2------2--3--5----------------2-6------
                                        _____________  _________
                                       | 1            | 2
g-------------------------------------|--------------|----------
d-------------------------------------|-------------*|---------- D.S. al fine
a--------------------0--2--------0--2-|-0-0---------*|-0-0----0-
e-2--2--6--6--2-2-6--------2--6-------|-----2--3--5--|-----2----
                                                              Fine

 Guitar: standard tuning, low to high [e a d g b e]
[ Tab from: http://www.guitartabs.cc/tabs/m/misc_video_games/dkc_jungle_hijinx_tab.html ]
e|--0--0----0--0------------------|-----------------------------|
b|*-3--3----3--3----3--3----3--3-*|*---------------------------*|
g|--2--2----2--2----5--5----4--4--|-----------------------------|
d|------------------5--5----5--5--|-----------------------------|
a|*------------------------------*|*-0--0--2--2--3--3--0h2p0h2-*|
e|--------------------------------|-----------------------------|
    ^..........................^ w/ delay
    S
e|-------------12------------12--------------12------------
b|*------13h16---------13h16-----------13h16----15-13-15---
g|--13h14---------13h14-----------13h14--------------------
d|---------------------------------------------------------
a|*--------------------------------------------------------
e|---------------------------------------------------------
                   _____________________________________________
                  | 1
e----------------|------------------11-12-11-12-11--------------|
b----------12-15-|----------12-15------------------15-13-12-13-*|
g-12h13h14-------|-12h13h14-------------------------------------|
d----------------|----------------------------------------------|
a----------------|---------------------------------------------*|
e----------------|----------------------------------------------|
  ________________________________
 | 2
e---------------------------16/17-
b---------------------------------
g-------------11-12-13-14--------- D.S. al fine
d-12-13-14-15---------------------
a---------------------------------
e---------------------------------
                               Fine
  Fills**
e---------0---0---|-------10---------|----------------|
b-----1-4---4---1-|-11-12----12-10p9-|-------9-12-9---|
g---2-------------|------------------|-11-12--------9-|
d-2---------------|------------------|----------------|
a-----------------|------------------|----------------|
e-----------------|------------------|----------------|

D.S al fine = Go to the "S" and play to the "Fine" to end

*  = Guitar kicks in here
** = Those fills are played on a second guitar, after repeating
     _____
the | 1    thing. I'm sure you can figure out when to play them.

Corrections/comments/etc. can be sent to: springwaffle@comcast.net
Comments