Misc Video Games - Contra End Credits Chords & Tabs

 

Contra End Credits Chords & Tabs

Misc Video Games Chords & Tabs

Version: 1 Type: Tab 0 ratings
1 star 2 stars 3 stars 4 stars 5 stars
comments

Contra End Credits Tab

Contra - End Credits
Tabbed by springwaffle

e|------------------1-0----5-7-8-3----0----5----5-3-1-0----0------------------------------
b|*--------3-1----1------------------------------------------3-1--------------------------
g|--0----0-------------------------------------------------------0----0h2p0-------------0-
d|-----------------------------------------------------------------------------0----2-3---
a|*---------------------------------------------------------------------------------------
e|----------------------------------------------------------------------------------------
[ Tab from: http://www.guitartabs.cc/tabs/m/misc_video_games/contra_end_credits_tab.html ]
e-----------------1-0----5-7-8-3----0----1----1-0---0----0----------------------------0-
b--------3-1----1---------------------------------3--------3-1---------------0h1h3-1h3--
g-0----0-------------------------------------------------------0----0h2p0---------------
d---------------------------------------------------------------------------------------
a---------------------------------------------------------------------------------------
e---------------------------------------------------------------------------------------

e-5---3---1--0--1---0--------------0-5---3---1---0---5---3---3-1-0-1---1-3-5-3----7------|
b----------------------3--1----1-3------------------------------------------------------*|
g----------------------------------------------------------------------------------------|
d----------------------------------------------------------------------------------------|
a---------------------------------------------------------------------------------------*|
e----------------------------------------------------------------------------------------|

e------------------------0-----------0----------
b---------0-----------1h3---------------2-------
g-2-2--0h2--2-2-0-----------0--1--2--------3--2-
d------------------3----------------------------
a-----------------------------------------------
e-----------------------------------------------

Corrections/comments/etc. can be sent to: springwaffle@comcast.net
Comments