Misc Video Games - Castlevania Stage Chords & Tabs

 

Castlevania Stage Chords & Tabs

Misc Video Games Chords & Tabs

Version: 1 Type: Tab 1 rating
1 star 2 stars 3 stars 4 stars 5 stars
comments

Castlevania Stage Tab

Castlevania - Vampire Killer (Stage 01)
Tabbed by springwaffle

e---------------------------------------------------------------
b-3-3-1-0---------------------1---3-3-1-0-----------------------
g----------------0h2-----2--0--------------------0h2-----2--0---
d----------0-2h3------0--------------------0-2h3------0---------
a-------------------------------------------------------------3-
e---------------------------------------------------------------
[ Tab from: http://www.guitartabs.cc/tabs/m/misc_video_games/castlevania_stage_tab.html ]
e----5--4h5p4----5--5-4--4-3--5-------------- r
b-3-----------6------------------6p3h6p3h6p3- e
g-------------------------------------------- p
d-------------------------------------------- e
a-------------------------------------------- a
e-------------------------------------------- t
                              *.............*

e----0--6-5---------0--6-5---------0--6-5------0--3--6-5-7-9-10-10-----
b-2----------6-3-2----------6---2----------6-3---------------------3-3-
g----------------------------------------------------------------------
d----------------------------------------------------------------------
a----------------------------------------------------------------------
e----------------------------------------------------------------------

e------------------|-10-10-----
b------------------|-------3-3-
g----------------0-|-----------
d-----0-3------2---|----------- play first part again
a-1-1------3-3-----|----------- then repeat from begining
e------------------|-----------

*......* I don't know if that's completely correct.
Comments