Misc Unsigned Bands - Znyx - Vaminos Chords & Tabs

 

Znyx - Vaminos Chords & Tabs

Misc Unsigned Bands Chords & Tabs

Version: 1 Type: Tab 0 ratings
1 star 2 stars 3 stars 4 stars 5 stars
comments

Znyx - Vaminos Tab

   
This band does exist we dont have a webpage yet.
Please put it on the "Misc Your Songs" page
Song: Vaminos
Band: Znyx
Drums: Kyle "Spunky" Barclay
Lead Guitar: Joe "Hardhat" Teixeira
Rhythm Guitar: Erik "Bandito" Trujillo
Bass: Justin "Seaman" Pulliam

Here is our very first song!!!  I'm stoked!!!
This is 100% correct because we made the song!!!!!!!!!!!!!!

x=scratch
pm=palm mute

INTRO (Just 1 guitar)
e------------------------
B-----------------------
G-----6-x-7-------------
D-7-x-6-x-7---7-x-4-x-2-   x4 after 2x second guitar comes in
A-7-x-4-x-5---7-x-4-x-2-
E-5-x---------5-x-2-x-0-

INTRO (Guitar 2)
e-----------------------
B-----------------------
G-----6-x-7-------------
D-7-x-x-x-x---7-x-4-x-2-   x2 after guitar 1 plays 2x
A-x-x-4-x-5---x-x-x-x-2-
E-5-x---------5-x-2-x-0-

CHORUS (Guitar 1)
e-----------------------------------------------------------------
B-----------------------------------------------------------------
G-----------------6-6-6-6-6-6-6-6-7-7-7-7-7-7-7-7-9-9-9-9-9-9-9-9-
D-7-7-7-7-7-7-7-7-6-6-6-6-6-6-6-6-7-7-7-7-7-7-7-7-9-9-9-9-9-9-9-9-   x2 
A-7-7-7-7-7-7-7-7-4-4-4-4-4-4-4-4-5-5-5-5-5-5-5-5-7-7-7-7-7-7-7-7-   
E-5-5-5-5-5-5-5-5-------------------------------------------------

CHORUS (Guitar 2) Both guitars play at same time
e-----------------------------------------------------------------
B-----------------------------------------------------------------
G-----------------6-6-6-6-6-6-6-6-7-7-7-7-7-7-7-7-9-9-9-9-9-9-9-9-
D-7-7-7-7-7-7-7-7-x-x-x-x-x-x-x-x-x-x-x-x-x-x-x-x-x-x-x-x-x-x-x-x-  x2
A-x-x-x-x-x-x-x-x-4-4-4-4-4-4-4-4-5-5-5-5-5-5-5-5-7-7-7-7-7-7-7-7-
E-5-5-5-5-5-5-5-5-------------------------------------------------

Repeat intro only twice and chorus parts again. Except on intro both guitars play
at same time. (guitar 2 doesn't join in, it just plays the whole thing in
octaves) 
[ Tab from: http://www.guitartabs.cc/tabs/m/misc_unsigned_bands/znyx_vaminos_tab.html ]
SOLO (Guitar 1 plays with bass) *= where second guitar comes in
e------------------------------------------------------------------------------
B------------------------------------------------------------------------------
G------------------------------------------------------------------------------
D---6-7-9----6-7-9------6-6-7-7-9------6-6-7-7-9-*-----6-6-7-7-9------6-6-7-7-9-
A-7-4-5-7--7-4-5-7--7-7-4-4-5-5-7--7-7-4-4-5-5-7-*-7-7-4-4-5-5-7--7-7-4-4-5-5-7-
E-5--------5--------5-5------------5-5-----------*-5-5------------5-5-----------
   pm............................................................................

e------------------------------------------------------------------------------
B------------------------------------------------------------------------------
G------------------------------------------------------------------------------
D-----6-6-7-7-9------6-6-7-7-9-------------------------------------------------
A-7-7-4-4-5-5-7--7-7-4-4-5-5-7-------------------------------------------------
E-5-5------------5-5-----------------------------------------------------------
pm..............................

Solo (Guitar 2) Comes in during guitar 1
e---------------
B---------------
G-----6-6-7-7-9-
D-7-7-6-6-7-7-9-   x4  let last note ring
A-7-7-4-4-5-5-7-
E-5-5-----------

Spunky does a sick ass solo!!!

Guitar 1 (guitar 2 plays same thing except in octaves)
e------------------------------------------------------------------------------------
B------------------------------------------------------------------------------------
G------6-x-7-------------------6-x-7-------6-x-7-------6-x-7-------6-x-7-------------
D--7-x-6-x-7---7-x-4-x-2---7-x-6-x-7---7-x-6-x-7---7-x-6-x-7---7-x-6-x-7---7-x-4-x-2-    
A--7-x-4-x-5---7-x-4-x-2---7-x-4-x-5---7-x-4-x-5---7-x-4-x-5---7-x-4-x-5---7-x-4-x-2-
E--5-x---------5-x-2-x-0---5-x---------5-x---------5-x---------5-x---------5-x-2-x-0-
 Let last note ring


That's it!!!  Remember us, we are the next upcoming band.
Comments