Misc Unsigned Bands - Williams - Empathy Chords & Tabs

 

Williams - Empathy Chords & Tabs

Misc Unsigned Bands Chords & Tabs

Version: 1 Type: Tab 0 ratings
1 star 2 stars 3 stars 4 stars 5 stars
comments

Williams - Empathy Tab

   
this song is by me and my band. we dont have a name so i put "the band".
this song has standard tunning and is called "empathy".
intro/verse:
 
       Bm               G                F#             Bm
 
p.m.---      ----       ----   ----     ---    ---     ---       ---
        
 e------2--2-----2--2------2-2-----2-2----2-2-----2-2-------2-2-------2-2--
 b------3--3-----3--3------0-0-----0-0----2-2-----2-2-------3-3-------3-3--
 g------4--4-----4--4------0-0-----0-0----2-2-----2-2-------4-4-------4-4--
 d----4--------4------------------------------------------4---------4------
 a--2--------2------------2------2--------4------4------2---------2--------
 e-------------------- 3------3---------2------2---------------------------
  (repeat until chorus)

 Bm                 G
 yesterday morning, dazed and confused   
 F#                 Bm
 i can't afford it, too expensive to loose
 Bm                G
 as i was running, hide and seek
 F#                Bm
 as i was running, away from me


Chorus:
     
     Am      F      E      Am
 e-----------2-----------------             play all of the chords 6 times
 b---1-------2-------------1---
 g---2-------3------1------2---
 d---2-------4------2------2---
 a-----------4------2----------
 e-----------2-----------------
[ Tab from: http://www.guitartabs.cc/tabs/m/misc_unsigned_bands/williams_empathy_tab.html ]
 Am      F            E          Am    
 take my breath away, dont wanna breath
 Am       F           E               Am
 take the flame away, schorching skin im on my knee 
 Am       F         E           Am
 take my life away, away from me
 Am      F             E      Am
 take my place for me, no one will know
 
(repeat the verse with different lyrics)
  in this world, where no one cares
  i am alone, with all my fears
  i finally wrote it, my letter to god
  i hope that he gets it, before im gone


(chorus)

(play verse two times before lyrics come in)
  yesterday morning, dazed and confused
  as i was running, away from you

(chorus)
   
after the chorus play this:
 
 Bm      G            F#     Bm  
 take my breath away, dont wanna breath
 Bm       G           F#              Bm
 take the flame away. schorching skin im on my knee
 Bm      G          F#   Bm
 take my life away, away from me
 Bm      G             F#     Bm
 take my place fpr me, no one will know
 Bm      G             F#     Bm
 take my place for me, no one will know
 Bm       G      F#    Bm
 peace, love, empathy, i love you so
Comments