Misc Unsigned Bands - White Collar - Psycho Girl Chords & Tabs

 

White Collar - Psycho Girl Chords & Tabs

Misc Unsigned Bands Chords & Tabs

Version: 1 Type: Tab 0 ratings
1 star 2 stars 3 stars 4 stars 5 stars
comments

White Collar - Psycho Girl Tab

The band white collar is a Utah band. That writes most of its own music.
they perform in Logan.

E|-------------------------------------------------------------------------|
B|-------------------------------------------------------------------------|
G|--666------------666------------666-----999-----666----------------------|
D|--666--777--666--666--777--666--666-777-999-999-666-777-6666666666-------|
A|--444--777--666--444--777--666--444-777-777-999-444-777-6666666666-------|
E|-------555--444-------555--444------555-----777-----555-4444444444-------|


E|-------------------------------------------------------------------------|
B|-------------------------------------------------------------------------|
G|--666------------666------------666-----999-----666----------------------|
D|--666--777--666--666--777--666--666-777-999-999-666-777-6666666666-------|
A|--444--777--666--444--777--666--444-777-777-999-444-777-6666666666-------|
E|-------555--444-------555--444------555-----777-----555-4444444444-------|


E|-------------------------------------------------------------------------|
B|-------------------------------------------------------------------------|
G|--6-6-6--6-6-6--999999999------------------------------------------------|
D|--6-6-6--6-6-6--999999999-9----------------------------------------------|
A|--4-4-4--4-4-4--777777777-9 pick slide-----------------------------------|
E|--------------------------7 pick slide-----------------------------------|


E|-------------------------------------------------------------------------|
B|-------------------------------------------------------------------------|
G|--666------------666------------666-----999-----666----------------------|
D|--666--777--666--666--777--666--666-777-999-999-666-777-6666666666-------|
A|--444--777--666--444--777--666--444-777-777-999-444-777-6666666666-------|
E|-------555--444-------555--444------555-----777-----555-4444444444-------|

[ Tab from: http://www.guitartabs.cc/tabs/m/misc_unsigned_bands/white_collar_psycho_girl_tab.html ]
E|-------------------------------------------------------------------------|
B|-------------------------------------------------------------------------|
G|--666------------666------------666-----999-----666----------------------|
D|--666--777--666--666--777--666--666-777-999-999-666-777-6666666666-------|
A|--444--777--666--444--777--666--444-777-777-999-444-777-6666666666-------|
E|-------555--444-------555--444------555-----777-----555-4444444444-------|


E|-------------------------------------------------------------------------|
B|-------------------------------------------------------------------------|
G|--6-6-6--6-6-6--999999999------------------------------------------------|
D|--6-6-6--6-6-6--999999999-9----------------------------------------------|
A|--4-4-4--4-4-4--777777777-9 pick slide-----------------------------------|
E|--------------------------7 pick slide-----------------------------------|

E|-------------------------------------------------------------------------|
B|-------------------------------------------------------------------------|
G|--666------------666------------666-----999-----666----------------------|
D|--666--777--666--666--777--666--666-777-999-999-666-777-6666666666-------|
A|--444--777--666--444--777--666--444-777-777-999-444-777-6666666666-------|
E|-------555--444-------555--444------555-----777-----555-4444444444-------|

E|--333-3--333-3--333-3--333-3--333-3--333-3--333-3--333-3------------------|
B|--444-4--444-4--444-4--444-4--444-4--444-4--444-4--444-4 ring out---------|
G|--555-5--000-0--555-5--000-0--555-5--000-0--555-5--000-0------------------|
D|--------------------------------------------------------------------------|
A|--------------------------------------------------------------------------|
E|--------------------------------------------------------------------------|

E|---------------------------------------------------------------------------|
B|---------------------------------------------------------------------------|
G|--666------------666------------666-----999-----666----------------6-------|
D|--666--777--666--666--777--666--666-777-999-999-666-777-6666666666-6-------|
A|--444--777--666--444--777--666--444-777-777-999-444-777-6666666666-4-------|
E|-------555--444-------555--444------555-----777-----555-4444444444---------|
Comments