Misc Unsigned Bands - Wet Toilet Seat - Life After Death Chords & Tabs

 

Wet Toilet Seat - Life After Death Chords & Tabs

Misc Unsigned Bands Chords & Tabs

Version: 1 Type: Tab 0 ratings
1 star 2 stars 3 stars 4 stars 5 stars
comments

Wet Toilet Seat - Life After Death Tab

                      Wet Toilet Seat - Life After Death
tabbed by:D...Rubin
Email: lilrubes@ptd.net
Tuning: standard 

my name is derrick rubin i play bass.
 wet toilet seat is my band. Me and my friends are from pennsylvania.we dont have a
websit yet.this tab is 100% correct cuz this is a song that i wrote.
i didnt write this song on bass yet when i do ill send it.

Intro

|--------------------------------------------------------------------------|
|--------------------------------------------------------------------------|
|-----------7\3--------3/5---------5\3---------3/9---------9\5--------5/7--|
|---0-0-0-0----0-0-0-0-----0-0-0-0-----0-0-0-0-----0-0-0-0-----0-0-0-0-----|
|--------------------------------------------------------------------------|
|--------------------------------------------------------------------------|

|---------------------------------|
|---------------------------------|
|-----------7\5---------4---------|
|---0-0-0-0-----0-0-0-0---5-------|
|---------------------------4-----|
|-----------------------------3b--|

Verse

|---------------------------------------------------------------------------|
|---------------------------------------------------------------------------|
|---------------------------------------------------------------------------|
|----------7\3----------3/5----------5\3----------3/5----------5\3----------|
|--7-7-7-7-7\3--3-3-3-3-3/5--5-5-5-5-5\3--3-3-3-3-3/5--5-5-5-5-5\3--3-3-3-3-|
|--0-0-0-0------0-0-0-0------0-0-0-0------0-0-0-0------0-0-0-0------0-0-0-0-|

|--3/15---15\7---|
|--3/15---15\7---|
|--3/15---15\7---|
|--3/15---15\7---|
|--3/15---15\7---|
|--3/15---15\7---|

Pre Chorus

|----------------------------|
|----------------------------|
|----------------------------|
|---4b---7b---12b---12\1p0---|
|---4b---7b---12b---12\1p0---|
|---4b---7b---12b---12\1p0---|

chorus
[ Tab from: http://www.guitartabs.cc/tabs/m/misc_unsigned_bands/wet_toilet_seat_life_after_death_tab.html ]
|---------------------------------------------------------------|
|---------------------------------------------------------------|
|---------------------------------------------------------------|
|---------------------------------------------------------------|
|------9-9\3-----3-3/5-----5-5\3-----3-3/7-----7-7\5-----5-5/9--|
|--0-0-------0-0-------0-0-------0-0-------0-0-------0-0--------|

solo
                   x 1                           x 3
|--------------------|--------------------------------|
|--------------------|-----------15---14--------------|
|--------------------|---------14---13---17-15-14-----|
|--12-14-15-12-14-15-|12-14-15--------------------13b-|
|--------------------|--------------------------------|
|--------------------|--------------------------------|

|-----------------15--------------------------|
|--------------15---14------------------------|
|-----------14---------13--17-15-14-17-15-14--|
|--12-14-15-----------------------------------|
|---------------------------------------------|
|---------------------------------------------|

|------------------------------------------------------------------------|
|-------------15---14----------------------------------------------------|
|-----------14---13---17-15-14-17-15-14-17-15-14-------------------------|
|--12-14-15--------------------------------------13b-11-10-11-9-8-7-3~---|
|------------------------------------------------------------------------|
|------------------------------------------------------------------------|

Outro

|--------------------------------------------------------------------------|
|--------------------------------------------------------------------------|
|--------------------------------------------------------------------------|
|--------------------------------------------------------------------------|
|---------3b--3b--3b--3b---|next just play an open note on the E string and|
|--3b--3b-----3b--3b--3b---|press on it behind the nut to bend it----------


Order

intro x1
verse x4
pre chorus x1
chorus x4
verse x4
pre chorus x1
chorus x4
verse x1
solo 
verse x4
pre chorus x1
chorus x4
intro x1
outro x1

its that simple!!!
Comments