Misc Unsigned Bands - Warped Perspective - Ruined By The Drink Chords & Tabs

 

Warped Perspective - Ruined By The Drink Chords & Tabs

Misc Unsigned Bands Chords & Tabs

Version: 1 Type: Tab 0 ratings
1 star 2 stars 3 stars 4 stars 5 stars
comments

Warped Perspective - Ruined By The Drink Tab

This is the first ever song i have wrote and it is me band Warped perspective.
For a demo contact me at invisible_monkey@hotmail.co.uk

Intro

E----------------------------------------------------|
B----------------------------------------------------|
G----------------------------------------------------|
D--2--2--4-4----4------4---4----2-2----2-------------|
A---2--2-----2----2------4--4-------0---0------------|
E-0--0--0------0---0-2----2---2------0---0-----------|

Verse and interlude (interlude is strummed and verse is palm muted)
[ Tab from: http://www.guitartabs.cc/tabs/m/misc_unsigned_bands/warped_perspective_ruined_by_the_drink_tab.html ]
E----------------------------------------------------|
B----------------------------------------------------|
G---4---2--------------------------------------------|
D-2-4-4-2--------------------------------------------|
A-2-2-4-0--------------------------------------------|
E-0---2----------------------------------------------|

Chorus

E----------------------------------------------------|
B----------------------------------------------------|
G-----2-4--------------------------------------------|
D-2-4-2-4--------------------------------------------|
A-2-4-0-2--------------------------------------------|
E-0-2------------------------------------------------|


Order

Intro x 2
Interlude (strummed) x 2
Verse (palm muted) x 2
Chorus x 2
Interlude (strummed) x 2
Verse (palm muted) x 2
Chorus x 2
Intro and Verse played together (2 Guitars) x 2
chorus x 4

End on E
Comments