Misc Unsigned Bands - Unselfishly Vain - 1 Am Chords & Tabs

 

Unselfishly Vain - 1 Am Chords & Tabs

Misc Unsigned Bands Chords & Tabs

Version: 1 Type: Bass Tab 0 ratings
1 star 2 stars 3 stars 4 stars 5 stars
comments

Unselfishly Vain - 1 Am Bass Tab

This is our first song and were are gettting better so here is the tab for my instrument

Verse:
-----------------|
-----------------|  (6x)
---7-7--4--2-----|
-----------------|

Chorus:
-------------------|
-------------------| (4x)
-------------------|
-5-5--7--4---------|

Verse:(4x)
[ Tab from: http://www.guitartabs.cc/tabs/m/misc_unsigned_bands/unselfishly_vain_1_am_btab.html ]
In Between:
-------------------|
-------------------|
-2-2--4--7---------|
-------------------|

Chorus:(1x)

Bridge:
---------------------------------------|
---------------------------------------|
2-2-4-0--0-0-7-4--2-2-4-0----------4-7-|
---------------------------5-5--4-7----|

Chorus:(1x)

Outro:
-------------------|
-------------------|
2-2-4-7------------|
--------5----------|
Comments