Misc Unsigned Bands - Unit Of A Gain - Try And Make Me Chords & Tabs

 

Unit Of A Gain - Try And Make Me Chords & Tabs

Misc Unsigned Bands Chords & Tabs

Version: 1 Type: Tab

Unit Of A Gain - Try And Make Me Tab

   
-------------------------------------------------------------------------------
			     Try and Make Me - Unit of a Gain
-------------------------------------------------------------------------------
Tabbed by:A Human
Email:

Tuning:Standard

Intro
e|---------------------------------------------------------------------|
B|---------------------------------------------------------------------|
G|---------------------------------------------------------------------|
D|---------------------------------------------------------------------|
A|---------------------------------------------------------------------|
E|-0-0-3-0-2-----0-3-0-2-2-2-2-0-0-3-0-2-3-0-5-3-2-5-3-2-5-3-2-3-2-3-0-|

e|-0-7-7-5------0-7-7-5-7-5-3-0-0-7-7-5-7-5-3---3-3-3-5-3-5-----|
B|--------------------------------------------------------------|
G|--------------------------------------------------------------|
D|--------------------------------------------------------------|
A|--------------------------------------------------------------|
E|--------------------------------------------------------------|

e|-0-0-7-7-5-5-3---0--0-7-7-5-7-5-3-0-0-7-7-5-7-5-3---3-3-3-5-3-5---|
B|------------------------------------------------------------------|
G|------------------------------------------------------------------|
D|------------------------------------------------------------------|
A|------------------------------------------------------------------|
E|------------------------------------------------------------------|
[ Tab from: http://www.guitartabs.cc/tabs/m/misc_unsigned_bands/unit_of_a_gain_try_and_make_me_tab.html ]
Riff 1                            4x
e|----------2--x--2-------------------|
B|----------1--x--1----1--x--1--------|
G|-1--x--1--2--x--2----2--x--2----1-x-|
D|-2--x--2-------------2--x--2----2-x-|
A|-2--x--2------------------------2-x-|
E|------------------------------------|

Solo 1                                                         2x
e|-----2---3--2--------3--2---2------2---3-2---3-2---3-2---2---2-|
B|-0-----3-------3---2------3---0------3-----3-----3-----3---2---|
G|---------------------------------------------------------------|
D|---------------------------------------------------------------|
A|---------------------------------------------------------------|
E|---------------------------------------------------------------|

Riff 1       4x
D.C. Al Coda

Coda                                               2x
e|---------------------------------------------------|
B|---------------------------------------------------|
G|---------------------------------------------------|
D|-------0-----0-----0-----0-----0-----0-----0-----0-|
A|-----2-----2-----2-----2-----2-----2-----2-----2---|
E|---3-----3-----2-----2-----1-----1-----2-----2-----|

then

 ritardando     R
e|------------------|
B|------------------|
G|------------------|
D|-----0-----0------|
A|---2-----2--------|
E|-3-----3------3---|

| /  slide up
| \  slide down
| h  hammer-on
| p  pull-off
| ~  vibrato
| +  harmonic
| x  Mute note
| R  Ring Out
===============================================================================