Misc Unsigned Bands - Underdogs - Take Me Out Chords & Tabs

 

Underdogs - Take Me Out Chords & Tabs

Misc Unsigned Bands Chords & Tabs

Version: 1 Type: Bass Tab 0 ratings
1 star 2 stars 3 stars 4 stars 5 stars
comments

Underdogs - Take Me Out Bass Tab

----------------------------------------------------------------------------
			   Take Me Out - The Underdogs
----------------------------------------------------------------------------

Tabbed By : Danny Y
e-mail: wee_danny_cfc@hotmail.com 
Song: Take Me Out (Franz Ferdinand Cover)

Tuning: Standard

Intro (Part 1 & 5)
G|---------------------------------------------------------------------|
D|---------------------------------------------------------------------|
A|---------------------------------------------------------------------|
E|---0-0-0-0-0-0-0-0-0-0-0-0-0-0-0-0-0-0-0-0-0-0-0-0-0-0-0-0-0-0-0-0---|

Intro (Part 2)
G|---------------------------------------------------------------------|
D|-------------------0-0-0-0-0-0-0-0-----------------------------------|
A|---0-0-0-0-0-0-0-0-------------------------2-2-2-2-------------------|
E|-----------------------------------3-3-3-3---------0-0-0-0-0-0-0-0---|

Intro (Part 3)
G|---------------------------------------------------------------------|
D|---------------------------------------------------------------------|
A|-------------------------------------------0-0-0-0-------------------|
E|---0-0-0-0-0-0-0-0-0-0-0-0-0-0-0-0-3-3-3-3---------0-0-0-0-0-0-0-0---|

Intro (Part 4)
G|---------------------------------------------------------------------|
D|-------------------0-0-0-0-0-0-0-0-----------------------------------|
A|---------------------------------------------------3-3-3-3-3-3-3-3---|
E|---3-3-3-3-3-3-3-3-----------------1-1-1-1-1-1-1-1-------------------|

Interlude
G|----------------|
D|---2-2-2-22-0---|
A|----------------|
E|----------------|
[ Tab from: http://www.guitartabs.cc/tabs/m/misc_unsigned_bands/underdogs_take_me_out_btab.html ]
Main Riff/Verse
G|-------------------------------------|
D|---2---2---2---2-------2-----1-4-1---|
A|-----2---2---2---2-0-3---3-2---------|
E|-------------------------------------|

Chorus
G|---------------------|
D|---------0-3-0-------|
A|---0-2-3-------3-2---|
E|---------------------|

Intro (Part 1) x1

Intro (Part 2) x4
So if you're lonely 
You know I'm here waiting for you 
I'm just a crosshair 
I'm just a shot away from you 
And if you leave here 
You leave me broken, shattered, I lie 
I'm just a crosshair 
I'm just a shot, then we can die 

Intro (Part 3) x1

Intro (Part 4) x1
I know I won't be leaving here with you 

Intro (Part 5) x1
Interlude x4
Main Riff x2

Verse x2
I say don't you know 
You say you don't know 
I say... take me out! 
I say you don't show 
Don't move, time is slow 
I say... take me out! 

Main Riff x1

Verse x2
I say you don't know 
You say you don't know 
I say... take me out! 
If I move this could die
If eyes move this could die
I want you...to take me out!

Interlude x2

Chorus x4
I know I won't be leaving here (with you) 
I know I won't be leaving here 
I know I won't be leaving here (with you) 
I know I won't be leaving here with you

Main Riff x1

Verse x3
I say don't you know?
You say you don't know
I say take me out
If I wane, this can die
If I wane, this can die
I want you to take me out
If I move, this could die
If eyes move, this could die
Come on, take me out

Main Riff x1
Interlude x2

Chorus x4
I know I won't be leaving here
I know I won't be leaving here
I know I won't be leaving here
I know I won't be leaving here with you

Interlude x3
Comments